Staind - Suffer Chords & Tabs

 

Suffer Chords & Tabs

Staind Chords & Tabs

Version: 3 Type: Tab 0 ratings
1 star 2 stars 3 stars 4 stars 5 stars
comments

Suffer Tab

Artist - Staind 
Song   - Suffer 
Album  - Break the cycle 
Tabbed by Tom Kelly 

intro 
eb|---------------------------------------
Bb|---------------------------------------
Gb|--------------0-----0------------------
Db|----2----8-8-----7---------------------
Ab|----2----8-8-----7---------------------
Eb|----0----6-6-----5---------------------
[ Tab from: http://www.guitartabs.cc/tabs/s/staind/suffer_tab_ver_3.html ]
verse 
eb|--------------------------------------
Bb|--------------------------------------
Gb|-------------------------------------- 
Db|---8-8-8-8-8-8-8-8-8-8--     ---------
Ab|---8-8-8-8-8-8-8-8-8-8-- etc ---------
Eb|---6-6-6-6-6-6-6-6-6-6--     ---------

chorus 
eb|----------------------------------------- 
Bb|--------1--------------------------------
Gb|----------2-3-3p2-------8-8--------------
Db|---3--------------3-----8-8---5----------
Ab|---3--------------------6-6---5----------
Eb|---1--------------------------3----------
  
Comments