Staind - Suffer Chords & Tabs

 

Suffer Chords & Tabs

Staind Chords & Tabs

Version: 2 Type: Tab 0 ratings
1 star 2 stars 3 stars 4 stars 5 stars
comments

Suffer Tab

   
Song: Suffer
Artist: Staind
Album: Break the Cycle
Tabbed By: EdoXX
Tuning: Db,Ab,Db,Gb,Bb,Eb
E-mail: edoheadxx@aol.com
 
It´s my first tab, but I think it sounds like it is, take a look.
 
Intro:
|---------------------------------|
|---------------------------------|
|-----------------0------------0--|
|--------------------0------------|  Reapet 5 times
|----0---8---7----------0---------|
|----0---8-0-8-------------5------|
 
|-------------------------------------|
|-------------------------------------|
|-------------------------------------|
|-------------------------------------|  
|----0---8---7-----7-7-7-7-7-7-7------|
|----0---8-0-8-----8-8-8-8-8-8-8------|


Verses:
|---------------------------------------------------|
|---------------------------------------------------|
|---------------------------------------------------|
|---------------------------------------------------| Reapet 8 times
|--7-8-8-8-8-8-8-8---7-8-8-8-8-8-8-8----------------|
|--8-8-8-8-8-8-8-8---8-8-8-8-8-8-8-8----------------|
 
After the first verse reapet the Intro like 4 times

[ Tab from: http://www.guitartabs.cc/tabs/s/staind/suffer_tab_ver_2.html ]
Chorus:
|-----------------------------------------------------------|
|-----------------------------------------------------------|
|------------5-----2-------3-3-2---------8-8-8-8------------|
|---3--3---------------------------3-----8-8-8-8--8-8-8-8---| Reapet like 4 times
|----------------------------------------6-6-6-6--5-5-5-5---|
|---3-----3-----3------3-----------------6-6-6-6--5-5-5-5---|
 
Then play the part of the verse n after it the intro again


Bridge:
|---------------------------------------------------|
|---------------------------------------------------|
|---------------------------------------------------|
|---------------------------------------------------|
|----3-x-x--6-x--8-8-8-8-8-8------------------------|
|----5-x-x--6-x--8-8-8-8-8-8------------------------|
 
After Bridge play  1 time the chorus and the last two chords play just one time both


Outro:
|---------------------------------------------|
|---------------------------------------------|
|------------5-----2-------3-3-2---------8----|
|---3--3---------------------------3-----8----| Clean tone guitar
|----------------------------------------6----|
|---3-----3-----3------3-----------------6----|
Comments