Staind - Spleen Chords & Tabs

 

Spleen Chords & Tabs

Staind Chords & Tabs

Version: 2 Type: Tab 0 ratings
1 star 2 stars 3 stars 4 stars 5 stars
comments

Spleen Tab

   
Artist: Staind
Title: Spleen
Album: Dysfunction
Tabbed By: Chip
Tuning:    Db  Ab   Db  Gb   Bb   Eb
Same as: (C#)(G#)(C#)(F#)(A#)(D#)
Staind is an awesome band. Enjoy them with these 100% correct tabs.

Intro (w/ Distortion):
Eb:-----------------------------------------
Bb:-----------------------------------------
Gb:-----------------------------------------   x4 ring out
Db: 0h2 --5p7----0h2--6p5---0h2--5p7ó5/4~4\5
Ab: 0h2 --5p7----0h2--6p5---0h2--5p7ó5/4~4\5
Db: 0h2 --5p7----0h2--6p5---0h2--5p7ó5/4~4\5

Eb: --------------------------
Bb: --------------------------
Gb: --------------------------      x4
Db: --------------------------
Ab: 666 555 666 555 33 5
Db: --------------------------
    ^---------P.M.----------^

Verse:
Eb: ---------------------------------
Bb: ---------------------------------
Gb: 8-7-8-7-5-7---8-7-8-7-10-9   x2
Db: 8-7-8-7-5-7---8-7-8-7-10-9 
Ab: 6-5-6-5-3-5---6-5-6-5- 8 -7
Db: ---------------------------------

Eb: --------------------------
Bb: --------------------------
Gb: --------------------------      x4
Db: --------------------------
Ab: 666 555 666 555 33 5
Db: --------------------------
    ^---------P.M. ----------^

Eb: --------------------------
Bb: --------------------------
Gb: 8-7-8-7-5-7---8-7-8-7-10-9   x2
Db: 8-7-8-7-5-7---8-7-8-7-10-9 
Ab: 6-5-6-5-3-5---6-5-6-5-8--7
Db: --------------------------
[ Tab from: http://www.guitartabs.cc/tabs/s/staind/spleen_tab_ver_2.html ]
Eb: --------------------------
Bb: --------------------------
Gb: --------------------------      x4
Db: --------------------------
Ab: 666 555 666 555 33 5
Db: --------------------------
    ^---------P.M. ----------^

Eb: --------------------------
Bb: --------------------------
Gb: 8-7-8-7-5-7---8-7-8-7-10-9   x2
Db: 8-7-8-7-5-7---8-7-8-7-10-9 
Ab: 6-5-6-5-3-5---6-5-6-5-8--7
Db: --------------------------

Chorus:
Eb: 
Bb: ----------------------------------
Gb: 2-2-2-2-8~-----------------7-5-8-5
Db: 2-2-2-2ó8~   x3    then    7-5-8-5    3x repeat all
Ab: 0-0-0-0ó6~-----------------5-3-6-3
Db: ----------------------------------

Brigde:
Eb: --------------------------
Bb: --------------------------
Gb: --------------------------      x4
Db: --------------------------
Ab: 666 555 666 555 33 5
Db: --------------------------
    ^---------P.M. ----------^

Verse 2: Same as Verse 1

Interlude:

Eb: -------------------
Bb: -------------------
Gb: -------------------
Db: -----------------3~~
Ab  2h3-3~--x8 ------3~~
Eb: -----------------3~~
	            ^P.M^



Kick in Distortion w/ Drums!
Eb: ------------------------
Bb: ------------------------
Gb: ------------------------
Db: -------------------- 3~~     x3
Ab: 2h3-3-- 2h3-3--------3~~
Eb: ---------------------3~~
                         ^P.M.^

(Chorus)


And thatís the end. This song rocks! Itís a good mosh song too!
E-mail me and tell me what you think: Level10Access@aol.com.
Out..
Comments