Staind - So Far Away Chords & Tabs

 

So Far Away Chords & Tabs

Staind Chords & Tabs

Version: 9 Type: Tab 0 ratings
1 star 2 stars 3 stars 4 stars 5 stars
comments

So Far Away Tab

Tabbed by:Chasen79
Email:

Tuning:Standard

e|--------------------------------------------------|
B|-11--11--11-12--12--12-14--14--14-----------------|
G|---11--11-----11--11-----11--11--13-11-10---------|
D|--------------------------------------------------|
A|--------------------------------------------------|
E|--------------------------------------------------|
[ Tab from: http://www.guitartabs.cc/tabs/s/staind/so_far_away_tab_ver_9.html ]
e|----------------------------------16-13-----------|
B|-11--11--11-12--12--12-14--14--14------14---------|
G|---11--11-----11--11-----11--11-------------------|
D|--------------------------------------------------|
A|--------------------------------------------------|
E|--------------------------------------------------|

Chorus
e|--------------------------------------------------|
B|--------------------------------------------------|
G|-----6---8---4------------------------------------|
D|-4---6---8---4------------------------------------|
A|-4---4---6---2------------------------------------|
E|-2------------------------------------------------|

Brige
e|--------------------------------------------------
B|--------------------------------------------------
G|-8---6-------3------------------------------------|
D|-8---6---4---3------------------------------------|
A|-6---4---4---1------------------------------------|
E|---------2----------------------------------------|
Comments