Staind - So Far Away Chords & Tabs

 

So Far Away Chords & Tabs

Staind Chords & Tabs

Version: 8 Type: Tab 0 ratings
1 star 2 stars 3 stars 4 stars 5 stars
comments

So Far Away Tab

Hey you guys. Carlos Martinez right here. I promised i would come back to tab
the rest of this song, and here's the rest of it.This is a beautiful and awesome
song. Reminds me of the times when i was with this girl I'll call "Fresh Flava".
lol. This sounds exactly like it, i spent a lot of time on this, so enjoy!
[ Tab from: http://www.guitartabs.cc/tabs/s/staind/so_far_away_tab_ver_8.html ]
intro/veruses-
|--------------------------------------------------------------------
|---11--------------12-------------14--------------------------------
|-------11--11--11-----11--11--11------11--11--11-----13---11---10---
|--------------------------------------------------------------------
|--------------------------------------------------------------------
|--------------------------------------------------------------------
                                                                       }x4
|-------------------------------------------------16---13------------
|---11--------------12-------------14----------------------14--------
|-------11--11--11-----11--11--11-----11--11--11---------------------
|--------------------------------------------------------------------
|--------------------------------------------------------------------
|--------------------------------------------------------------------

chorus-
|---------------------------------------------------------------------
|---------------------------------------------------------------------
|---------------8----4------------------------------------------------
|----4----6-----8----4------------------------------------------------  }x4
|----4----6-----6----2------------------------------------------------
|----2----4-----------------------------------------------------------


interlude-
|----------------------------------------------------------------------
|----------------------------------------------------------------------
|----8----6---------3--------------------------------------------------
|----8----6----4----3-------------------------------------------------- }x5 
|----6----4----4----1--------------------------------------------------
|--------------2-------------------------------------------------------
Comments