Staind - So Far Away Chords & Tabs

 

So Far Away Chords & Tabs

Staind Chords & Tabs

Version: 6 Type: Tab 0 ratings
1 star 2 stars 3 stars 4 stars 5 stars
comments

So Far Away Tab

   
Tunning: Half a step down (eb Ab Db Gb Bb eb)
Comment: thinhle@ufl.edu
I think this is as accurate as it gets unless you get the official tab book.
Feel free to comment. Thanks.

Intro/Verse:
|-7-------7-8-------8-10--------10-5--------|
|----8--8------8--8-------8--8--------7--8--|
|-------------------------------------------|
|-------------------------------------------|
|-------------------------------------------|
|-------------------------------------------|

Intro 4x
Verse 4x

then...
Eb -8-------8-8-------8-8-------8-5-
Bb ----8--8------8--8------8--8-----
Gb ---------------------------------
Db ---------------------------------
Ab ---------------------------------
eb ---------------------------------

Chorus:	

  G5	D5	E5	C5
Eb ---	---	---	---
Bb ---	---	---	---
Gb ---	-7-	-9-	-5-
Db -5-	-7-	-9-	-5-
Ab -5-	-5-	-7-	-3-
eb -3-	---	---	---  4x
[ Tab from: http://www.guitartabs.cc/tabs/s/staind/so_far_away_tab_ver_6.html ]
Repeat 4x:
|-7-------7-8-------8-10--------10-5--------|
|----8--8------8--8-------8--8--------7--8--|
|-------------------------------------------|
|-------------------------------------------|
|-------------------------------------------|
|-------------------------------------------|

then...
Eb -8-------8-8-------8-8-------8-5-
Bb ----8--8------8--8------8--8-----
Gb ---------------------------------
Db ---------------------------------
Ab ---------------------------------
eb ---------------------------------

Repeat Chorus 4x

Bridge:
E5	G5	D5	G5   x4

Repeat Chorus 4x

-------------------------------------
Here are the lyrics:

Verse I: 
this is my life
its not what it was before
all these feelings i've shared
and these are my dreams
that i'd never lived before
somebody shake me
cuz i 
i must be sleeping

chorus:
now that we're here,
it's so far away
all the struggle we thought was in vain
all in the mistakes,
one life contained
they all finally start to go away
now that we're here its so far away
and i feel like i can face the day i can forgive
and i'm not ashambed to be the person that i am today

Verse II:
these are my words
that i've never said before
i think i'm doing okay
and this is the smile 
that i've never shown before
somebody shake me cuz i
i must be sleeping

[chorus]

Bridge:
i'm so afraid of waking
please don't shake me
afraid of waking
please don't shake me
Comments