Staind - So Far Away Chords & Tabs

 

So Far Away Chords & Tabs

Staind Chords & Tabs

Version: 4 Type: Tab 0 ratings
1 star 2 stars 3 stars 4 stars 5 stars
comments

So Far Away Tab

   
##################################################################################
# This file is the author's own work and represents their interpretation of the  #
# song. You may only use this file for private study, scholarship, or research.  #
##################################################################################


Artist - Staind
Song - "So Far Away"
Album - 14 Shades of Grey (2003)
Tabbed by - Lance Mohesky (Lmohesky@cableone.net)



Tuning - Standard EADGBe



Verse

e|--6---6---6--7---7---7--9---9---9-----------------|
B|----7---7------7---7------7---7----9-7-6----------|
G|-------------------------------------------------o|
D|-------------------------------------------------o|
A|--------------------------------------------------|
E|--------------------------------------------------|



Chorus
[ Tab from: http://www.guitartabs.cc/tabs/s/staind/so_far_away_tab_ver_4.html ]
   F#       C#       Eb       B
e|--------------------------------------------------|
B|--------------------------------------------------|
G|----------6--------8--------4--------------------o|
D|-4--------6--------8--------4--------------------o|
A|-4--------4--------6--------2---------------------|
E|-2------------------------------------------------|



Bridge

Guitar 1
e|-------------------|
B|-------------------|
G|-8---10---11---13--|
D|-8---10---11---13--|
A|-6---8----9----11--|
E|-------------------|

e|-------------------|
B|-------------------|
G|-8---6-------4-----|
D|-8---6---4---4-----|
A|-6---4---4---2-----|
E|---------2---------|

Guitar 2
e|-------------------|
B|-------------------|
G|-11--10------------|
D|----------11-------|
A|-9---8-------------|
E|----------9--------|

Comments