Staind - So Far Away Chords & Tabs

 

So Far Away Chords & Tabs

Staind Chords & Tabs

Version: 3 Type: Tab 0 ratings
1 star 2 stars 3 stars 4 stars 5 stars
comments

So Far Away Tab

   
##################################################################################
# This file is the author's own work and represents their interpretation of the  #
# song. You may only use this file for private study, scholarship, or research.  #
##################################################################################

Artist - Staind
Song - So Far Away
Tab by KT

Eb Ab Db Gb Bb Eb - 1/2 step down

INTRO
[ Tab from: http://www.guitartabs.cc/tabs/s/staind/so_far_away_tab_ver_3.html ]
Eb||-7---------7-8---------8-10---------10----------
Bb||-----8---8-------8---8--------8---8----10---7-8-
Gb||-------9-----------9------------9---------------    (Play throughout 1st & 2nd verse)
Db||------------------------------------------------
Ab||------------------------------------------------
Eb||------------------------------------------------
                                                        (Begin verse 1)
    Em           C            G             D           Em           C           G
Eb||-0-----------0------------3-------------3-------  ||-0-----------0-----------3-
Bb||-0-----------1------------0-------------2-------  ||-0-----------1-----------0-
Gb||-0-----------0------------0-------------3-------  ||-0-----------0-----------0-
Db||-2-----------2------------0-------------0-------  ||-2-----------2-----------0-
Ab||-2-----------3------------2-------------X-------  ||-2-----------3-----------2-
Eb||-0-----------X------------3-------------X-------  ||-0-----------X-----------3-


CHORUS
(Same as above)

"G" 8 times and let ring out to end...
Comments