Staind - So Far Away Chords & Tabs

 

So Far Away Chords & Tabs

Staind Chords & Tabs

Version: 17 Type: Tab 0 ratings
1 star 2 stars 3 stars 4 stars 5 stars
comments

So Far Away Tab

   
Artist: Staind
Title: So Far Away
Album: 14 Shades Of Grey
OK, first off, Mike is a badass for tuning this low and still being able to make music.
reccomend that you get some strings with a third wound string or some 13's, otherwise it
and sounds like playing rubber bands. You also need a cromatic tuner, as conventional
ones wont go lower than 2 1/2 steps. This is just what Mike is playing (ie the elertic 
There are two acoustic guitars also playing, one strumming and one picking, you can have fun with those,
Tunning (low to High) : Ab Eb Ab Db Eb Ab
Timming 6:8
(#)=natural Harmonic
~=let ring
[ Tab from: http://www.guitartabs.cc/tabs/s/staind/so_far_away_tab_ver_17.html ]
Intro, clean with chours effect
e--14----------14-15----------15-17-----------17--(12)--------------|
B-----15----15-------15----15-------15-----15-----------14----------|
G--------14-------------14-------------14-------------------(12)----|
D-------------------------------------------------------------------|
A-------------------------------------------------------------------|
E-------------------------------------------------------------------|
intro continued                  (*Verse starts/words come in here)
e--14----------14-15----------15-17-------------(5)----------------|
B-----15----15-------15----15-------15-----15----------------------|
G--------14-------------14-------------14-----------(9)-----(5)----|
D------------------------------------------------------------------|
A------------------------------------------------------------------|
E------------------------------------------------------------------|
Verse Continued (2)
e--14----------14-15----------15-17-----------17--(12)--------------|
B-----15----15-------15----15-------15-----15-----------14----------|
G--------14-------------14-------------14-------------------(12)----|
D-------------------------------------------------------------------|
A-------------------------------------------------------------------|
E-------------------------------------------------------------------|
Verse Continued (3)
e--14----------14-15----------15-17-------------(5)----------------|
B-----15----15-------15----15-------15-----15----------------------|
G--------14-------------14-------------14-----------(9)-----(5)----|
D------------------------------------------------------------------|
A------------------------------------------------------------------|
E------------------------------------------------------------------|
Verse Continued (4)
(where he holds the word "sleeping"
e--15----------15-15----------15-15-----------15-------------------|
B-----15----15-------15----15-------15-----15----17~---------------|
G--------14-------------14-------------14--------------------------|
D------------------------------------------------------------------|
A------------------------------------------------------------------|
E------------------------------------------------------------------|
Chours
(chours effect out)
distortion
e-----------------------------------------------------------------------------------|
B-----------------------------------------------------------------------------------|
G--12~----12 12-12-12----7~--7-7-7-7---7~--7-7-7-7---5~--5-5-5-5--------------------|
D--10~----10-10-10-10----5~--5-5-5-5---5~--5-5-5-5---3~--3-3-3-3--------------------|
A--10~----10-10-10-10----5~--5-5-5-5---5~--5-5-5-5---3~--3-3-3-3--------------------|
E--10~----10-10-10-10----5~--5-5-5-5---5~--5-5-5-5---3~--3-3-3-3--------------------|
(repeat 12 times, play a total of 16 times)
Post Chorus Fill (play right after chours finishes)
(clean, w/ Chours effect)
e---17-------------(5)------------------------|
B------15-----15------------------------------|
G----------14-----------(9)-----(5)-----------|
D---------------------------------------------|
A---------------------------------------------|
E---------------------------------------------|
Repeat the verse, start where it says "verse continued (2)"
Then repeat the chours
Bridge
e-------------------------------------------------------------------------------------------|
B-------------------------------------------------------------------------------------------|
G--4~--4-4-4--------------------------------------------------------------------------------|
D--5~--5-5-5--2~-2-2-2--2~--2-2-2---5~--5-5-5---3~--3-3-3---5~-5-5-5--7~-7-7-7---9~--9-9-9--|
A--0~--0-0-0--2~-2-2-2--3~--3-3-3---5~--5-5-5---3~--3-3-3---5~-5-5-5--7~-7-7-7---9~--9-9-9--|
E-----------------------------------3~--3-3-3---3~--3-3-3---5~-5-5-5--7~-7-7-7---9~--9-9-9--|
Repeat 1 more time, play 2 times total
Repeat chours
For the outro Just let the last chord of the chorus ring.
Thats it, hope you enjoi it, any questions comments or death threats send um' to 
oh and dont forget to rate me
Comments