Staind - So Far Away Chords & Tabs

 

So Far Away Chords & Tabs

Staind Chords & Tabs

Version: 16 Type: Tab 0 ratings
1 star 2 stars 3 stars 4 stars 5 stars
comments

So Far Away Tab

   
The other tabs that were here did not sound very right to me.  So finally I went
out and got the C.D.  I figured it out for myself the way it sounds.  Here's my
version.

It is tuned a half step down. Eb, Bb, Gb, Db, Ab, Eb.  The Eb on the bottom is
the low Eb and the Eb at the top is the high Eb.

 --------
|Key     |  
|x= muted|
|/= slide|
 --------

Eb--3-3--3-3--3-3--3-3--|
Bb---3-3--3-3--3-3--3-3-|
Gb----------------------|
Db----------------0-----|  intro x8
Ab------3---------------|
Eb-0---------3----------|

then.....

Eb--3-3---3-3--3-3---3-3--|
Bb---3-3---3-3--3-3---3-3-|
Gb------------------------|
Db------------------------|    bridge x1
Ab-3----33----3----33-----|
Eb------------------------|

then.....
[ Tab from: http://www.guitartabs.cc/tabs/s/staind/so_far_away_tab_ver_16.html ]
Eb----------------------------------------|
Bb----------------------------------------|
Gb----------------------------------------|
Db------------7-777-xxxx------------5-555-|    chorus x4 
Ab-5-555-xxxx-5-555-xxxx-2-222-xxxx-3-333-|
Eb-3-333-xxxx------------0-000-xxxx-------|

then repeat intro, then repeat bridge, then repeat chorus
then.......

Eb---|
Bb---|
Gb---|
Db-5-|  Break x1  Let this note ring for awhile
Ab-3-|
Eb---|

then.....

Eb--3-3--3-3--3-3--3-3/5-|
Bb---3-3--3-3--3-3--3----|
Gb-----------------------|
Db------0----------------|  Breakdown x4
Ab----------------3------|
Eb-3---------0-----------|

then repeat chorus
then......

Eb-3-33-3-33-3-33-3-33-|
Bb-3-33-3-33-3-33-3-33-|
Gb---------------------|
Db---------------------|   Outro x2
Ab-3-33-3-33-3-33-3-33-|
Eb---------------------|

This is what I got it's not 100% right and it may not sound right to you if you
play it like this along with the song, but it sounds right to me.  And if it
doesn't sound exactly right to you but it sounds close it might give you an idea
of what the real way might be.  Hope it helps.  This is my first tab so there's
probably some mistakes but oh well.  PEACE IM OUT
Comments