Staind - So Far Away Chords & Tabs

 

So Far Away Chords & Tabs

Staind Chords & Tabs

Version: 15 Type: Tab 0 ratings
1 star 2 stars 3 stars 4 stars 5 stars
comments

So Far Away Tab

   
Song: So Far Away
Band: Staind
Album: 14 Shades of Grey
Tuning: E A D G B E
Tabbed By: PYRo78387


Intro and Rhythm
e|-------------------------------|
B|11--11--12--12--14--14---------|
G|--11------11------11--13--11-10|
D|-------------------------------|
A|-------------------------------|
E|-------------------------------|
[ Tab from: http://www.guitartabs.cc/tabs/s/staind/so_far_away_tab_ver_15.html ]
e|----------------------16-13----|
B|11--11--12--12--14--14-----14--|
G|--11------11------11-----------|
D|-------------------------------|
A|-------------------------------|
E|-------------------------------|

Chorus
e|----------|
B|----------|
G|---7-----5|
D|5--7--2--5|
A|5--5--2--3|
E|3-----0---|

Bridge
e|----------|
B|----------|
G|---7-----5|
D|2--7--5--5|
A|2--5--5--3|
E|0-----3---|
Comments