Staind - So Far Away Chords & Tabs

 

So Far Away Chords & Tabs

Staind Chords & Tabs

Version: 12 Type: Tab 0 ratings
1 star 2 stars 3 stars 4 stars 5 stars
comments

So Far Away Tab

Staind - So Far Away

This is it. You might want to mess around with the intro a little to see
if it sounds better to you. This is an awesome song, so have fun!

Tuning:Standard
[ Tab from: http://www.guitartabs.cc/tabs/s/staind/so_far_away_tab_ver_12.html ]
  Intro
e|--------------------------------------------------|
B|-11------11-12------12-14------14-9---------------|
G|---11--11-----11--11-----11--11-----10-11---------|
D|-----13---------13---------13---------------------|
A|--------------------------------------------------|
E|--------------------------------------------------|
  Verse
e|--------------------------------------------------|
B|-11------11-12------12-14------14-9---------------|
G|---11--11-----11--11-----11--11-----10-11---------|
D|-----13---------13---------13---------------------|
A|--------------------------------------------------|
E|--------------------------------------------------|

Chorus
e|--------------------------------------------------|
B|--------------------------------------------------|
G|-----6---8---4------------------------------------|
D|-4---6---8---4------------------------------------|
A|-4---4---6---2------------------------------------|
E|-2------------------------------------------------|

Bridge
e|--------------------------------------------------
B|--------------------------------------------------
G|-8---6-------3------------------------------------|
D|-8---6---4---3------------------------------------|
A|-6---4---4---1------------------------------------|
E|---------2----------------------------------------|
Comments