Staind - So Far Away Chords & Tabs

 

So Far Away Chords & Tabs

Staind Chords & Tabs

Version: 3 Type: Bass Tab

So Far Away Bass Tab

-------------------------------------------------------------------------------
			     So Far Away - Staind
-------------------------------------------------------------------------------

Tabbed By : MegaDeth859
e-mail: MegaDeth859@hotmail.com

Tuning:  BEADG
Regular 5-String Bass

Guitar Intro

Pre-Verse:
     				    This is...
G|-------------------||-------------------|
D|-------------------||-------------------|
A|-------------------||-------------------|
E|----------2--------||----------2--------|
B|--4---0-------2----||--4---0-------2----|

Verse 1:
my life
G|-------------------||-------------------|
D|-------------------||-------------------|
A|-------------------||-------------------|x2
E|----------2--------||----------2--------|
B|--4---0-------2----||--4---0-------2----|

  ssleeepin'....
G|-------------------|
D|-2---2---2--4-4-4--|
A|-------------------|
E|-------------------|
B|-------------------|

Chorus
G|--------------------------------------------||---------------------------------------------|
D|--------------------------------------------||---------------------------------------------|
A|--------------------------------2-2--2--2---||---------------------------------2-2--2--2---|x2
E|--2--222-2h3--------------------------------||--2--22-2-2h3--------------------------------|
B|-------------2-22-2-2-4--44-4-40-00-00-00---||--------------2--22--2---4-44-4-0-00-00-00---|
[ Tab from: http://www.guitartabs.cc/tabs/s/staind/so_far_away_btab_ver_3.html ]
Verse 2:
These are my words
G|-------------------||-------------------|
D|-------------------||-------------------|
A|-------------------||-------------------|x2
E|----------2--------||----------2--------|
B|--4---0-------2----||--4---0-------2----|

  ssleeepin'....
G|-------------------|
D|-2---2---2--4-4-4--|
A|-------------------|
E|-------------------|
B|-------------------|

Chorus:
G|--------------------------------------------||---------------------------------------------|
D|--------------------------------------------||---------------------------------------------|
A|--------------------------------2-2--2--2---||---------------------------------2-2--2--2---|x2
E|--2--222-2h3--------------------------------||--2--22-2-2h3--------------------------------|
B|-------------2-22-2-2-4--44-4-40-00-00-00---||--------------2--22--2---4-44-4-0-00-00-00---|

Bridge:
G|----------------------------------------------------------------------------|
D|----------------------------------------------------------------------------|
A|----------------------------------------------------------------------------|
E|---------------------------------------------------7---9---11---13-sl-16-14-|
B|---4---6---7---9---0---2---4---6---4---6---7---9----------------------------|

Chorus:
G|--------------------------------------------||---------------------------------------------|
D|--------------------------------------------||---------------------------------------------|
A|--------------------------------2-2--2--2---||---------------------------------2-2--2--2---|x2
E|--14--14--14--------------------------------||--2--22-2-2h3--------------------------------|
B|-------------2-22-2-2-4--44-4-40-00-00-00---||--------------2--22--2---4-44-4-0-00-00-00---|

Guitar Outro