Staind - Secret Song Chords & Tabs

 

Secret Song Chords & Tabs

Staind Chords & Tabs

Version: 1 Type: Tab 0 ratings
1 star 2 stars 3 stars 4 stars 5 stars
comments

Secret Song Tab

   
Artist:Staind
Record:Dysfunction
Song:Secret Song
Tabbed by:The Pimpest Drummer (Chris)
E-mail address:Slipknot18374@aol.com

This was the easiest song to tab out.  I am not even a guitarist, 
I am a drummer but I have some guitar ability.  I figured this one 
out in like five minutes.  Well, these are the riffs.  I think you 
will be able to figure out the number of times you play them but if 
not feel free to e-mail me and i will give them to you.  Enjoy.

Acoustic Guitar
Standard Tuning (low to high E A D G B E)
[ Tab from: http://www.guitartabs.cc/tabs/s/staind/secret_song_tab.html ]
Verse Riff
Play this four times                 then this four times
-------------------------            -------------------------
-------------------------            -------------------------
-----------0-------------            -----------0-------------
--------4-----4----------            --------4-----4----------
-----2-----------2-------            -----2-----------2-------
--0----------------------            --3----------------------

Chorus Riff
Play this two times                  then this two times
-----------0-------------            -----------0-------------
-------------------------            -------------------------
--------4-----4----------            --------4-----4----------
-----2-----------2-------            -----2-----------2-------
--0----------------------            --3----------------------
-------------------------            -------------------------
Play the chorus riffs twice and that is the entire chorus
Comments