Staind - Schizophrenic Conversations Chords & Tabs

 

Schizophrenic Conversations Chords & Tabs

Staind Chords & Tabs

Version: 2 Type: Tab 0 ratings
1 star 2 stars 3 stars 4 stars 5 stars
comments

Schizophrenic Conversations Tab

Standard Tuning EADGBe


Intro


e|----------------------------------------------1---------|
B|--------------------------------------------------------|
G|----3-3---7-5-3-5-5---6-5-3-6-6---6-5-6-3-3-----3-1-3---| Repeat 7 times
D|----3---3-------5---5-------6---6-------3---3-------3---|
A|----1-----------3-----------4-----------1-----------1---|
E|--------------------------------------------------------|




2nd guitar (at the same time first is playing just before chorus) pre-chorus

e|------------------------------------------|
B|----7-6-7-6-7-6-7-6-7-6-7-6-7-6-7-6-7-6---|
G|------------------------------------------|
D|------------------------------------------|
A|------------------------------------------|
E|------------------------------------------|





Chorus

e|--------------------------------------------------|
B|--------------------------------------------------|
G|----6-6-6-6-6-6-3-3-3-3-3-------------------------|
D|----6-6-6-6-6-6-3-3-3-3-3-4-4-4-4-4-4-6-6-6-6-6-6-| Repeat 2 times
A|----4-4-4-4-4-4-1-1-1-1-1-4-4-4-4-4-4-6-6-6-6-6-6-|
E|--------------------------2-2-2-2-2-2-4-4-4-4-4-4-|


2nd guitar (during chorus)

e|----------------|
B|-------11/9/11--|
G|----10----------|
D|----------------|  Repeat throughout chorus
A|----------------|
E|----------------|

2nd guitar (small solo after 1st chorus)

e|-------------------------------11/13---------------------------|
B|-------11----13-11-13-14-13-11-------14-13-11h-14-13-11----11h-|
G|----10----10--------------------------------------------13-----|
D|---------------------------------------------------------------|
A|---------------------------------------------------------------|
E|---------------------------------------------------------------|





e|----------------------------------------------1---------|
B|--------------------------------------------------------|
G|----3-3---7-5-3-5-5---6-5-3-6-6---6-5-6-3-3-----3-1-3---| Repeat 7 times
D|----3---3-------5---5-------6---6-------3---3-------3---|(even during solo)
A|----1-----------3-----------4-----------1-----------1---|
E|--------------------------------------------------------|


[ Tab from: http://www.guitartabs.cc/tabs/s/staind/schizophrenic_conversations_tab_ver_2.html ]
2nd guitar (at the same time first is playing just before chorus) pre-chorus

e|------------------------------------------|
B|----7-6-7-6-7-6-7-6-7-6-7-6-7-6-7-6-7-6---|
G|------------------------------------------|
D|------------------------------------------|
A|------------------------------------------|
E|------------------------------------------|





Chorus

e|--------------------------------------------------|
B|--------------------------------------------------|
G|----6-6-6-6-6-6-3-3-3-3-3-------------------------|
D|----6-6-6-6-6-6-3-3-3-3-3-4-4-4-4-4-4-6-6-6-6-6-6-| Repeat 2 times
A|----4-4-4-4-4-4-1-1-1-1-1-4-4-4-4-4-4-6-6-6-6-6-6-|
E|--------------------------2-2-2-2-2-2-4-4-4-4-4-4-|


2nd guitar (during chorus)

e|----------------|
B|-------11/9/11--|
G|----10----------|
D|----------------|  Repeat throughout chorus
A|----------------|
E|----------------|


Song Changes a little here


e|----------------4-4-------1-1------------------|
B|----------------4-4-------1-1------------------|
G|----6-6-6-6-6-6--------------------------------|
D|----6-6-6-6-6-6-----3-3-3-----4-4-4-4-6-6-6-6--|
A|----4-4-4-4-4-4-----3-3-3-----4-4-4-4-6-6-6-6--|
E|--------------------1-1-1-----2-2-2-2-4-4-4-4--|


2nd guitar

e|--------------------------|
B|---------------11-13-14---|
G|-------10----8------------|
D|----11----10--------------|
A|--------------------------|
E|--------------------------|



Chorus

e|--------------------------------------------------|
B|--------------------------------------------------|
G|----6-6-6-6-6-6-3-3-3-3-3-------------------------|
D|----6-6-6-6-6-6-3-3-3-3-3-4-4-4-4-4-4-6-6-6-6-6-6-| Repeat 3 times
A|----4-4-4-4-4-4-1-1-1-1-1-4-4-4-4-4-4-6-6-6-6-6-6-|
E|--------------------------2-2-2-2-2-2-4-4-4-4-4-4-|


2nd guitar (during chorus)

e|----------------|
B|-------11/9/11--|
G|----10----------|
D|----------------|  Repeat throughout chorus then let last note ring til the 
A|----------------|       ending
E|----------------|






Outro


e|------------------------------------|
B|------------------------------------|
G|----3-3---7-5-3-5-5---6-5-3-6-------| let the last note ring
D|----3---3-------5---5-------6-------|
A|----1-----------3-----------4-------|
E|------------------------------------|
Comments