Staind - Safe Place Chords & Tabs

 

Safe Place Chords & Tabs

Staind Chords & Tabs

Version: 1 Type: Tab 0 ratings
1 star 2 stars 3 stars 4 stars 5 stars
comments

Safe Place Tab

   
##################################################################################
# This file is the author's own work and represents their interpretation of the  #
# song. You may only use this file for private study, scholarship, or research.  #
##################################################################################

Author/Artist: Staind
Title: Safe Place
Tuning: Drop D & Down Half Step (C# D# C# F# A# D#)

Riff 1: Intro 1
e|--------------------
B|--------------------
G|-2--2-2-0-----------
D|--------------------
A|--------------------
E|------------4/6-1/3-

Riff 2: Intro 2
e|------------------------------
B|------------------------------
G|------------------------------
D|-0-1/6-65-0--9/14--14-14-12--
A|-0-1/6-65-0--x--x---x--x--x--
E|-0-1/6-65-0--7/12--12-12-10--
  Play 3 times

e|------------------------------
B|------------------------------
G|------------------------------
D|-0-1/6-65-0--7--7-7/10-10----
A|-0-1/6-65-0--x--x-x/-x--x----
E|-0-1/6-65-0--5--5-5/-8--8----

Riff 3: Refrain
e|--------------------
B|--------------------
G|-2--2-2-0-----------
D|--------------------
A|--------------------
E|------------4/6-1/3-
[ Tab from: http://www.guitartabs.cc/tabs/s/staind/safe_place_tab.html ]
Riff 4: Chorus 1
e|-------------------------------------------------
B|-------------------------------------------------
G|-------------------------------------------------
D|-0-1/6-65-0--9/14--14-14-12--0-0-0--------------
A|-0-1/6-65-0--x--x---x--x--x--0-0-0--------------
E|-0-1/6-65-0--7/12--12-12-10--0-0-0--------------
                                x x x

e|-------------------------------------------------
B|-------------------------------------------------
G|-------------------------------------------------
D|-0-1/6-65-0--9/14--14-14-12--0--0--0-0-0-0--0-0-
A|-0-1/6-65-0--x--x---x--x--x--0--0--0-0-0-0--0-0-
E|-0-1/6-65-0--7/12--12-12-10--0--0--0-0-0-0--0-0-
                                x  x  x x x x  x x

Riff 5: Chorus 2
e|--------------------------------------------------
B|--------------------------------------------------
G|--------------------------------------------------
D|-5--5-5-5/8r-8--8-8-8/3-3--3-3-3--3-3-3--3-3------
A|-5--5-5-5/8r-8--8-8-8/3-3--3-3-3--3-3-3--3-3------
E|-5--5-5-5/8r-8 -8-8-8/3-3--3-3-3--3-3-3--3-3------
  Play 3 times                      x x x  x x

Riff 6: Refrain 2
e|--------------------------------------------------
B|--------------------------------------------------
G|--------------------------------------------------
D|-3-3-3--x--3-3/5r-1-1-1--x--1-1/4r----------------
A|-3-3-3--x--3-3/5r-1-1-1--x--1-1/4r----------------
E|-3-3-3--x--3-3/5r-1-1-1--x--1-1/4r----------------
   x x x     x x    x x x     x x 

Intro 1 - 4x (Clean)

Intro 2 - (Distorted)

Refrain 1 - 4x (Clean)


Visit my site at http://www.ablazen.com
Comments