Staind - Right Here Chords & Tabs

 

Right Here Chords & Tabs

Staind Chords & Tabs

Version: 5 Type: Tab 0 ratings
1 star 2 stars 3 stars 4 stars 5 stars
comments

Right Here Tab

   
Song: Right Here
Artist: Staind
Tuning: (Low to high: Bb  Eb Ab Db Gb Bb)
Tabbed by: Jonathon Brooks  7/14/2005

*Repeats are not marked. Its pretty easy to figure out the transitions.


Intro:
|------------5--------------------|-------------------------5^3------------|
|-----5----------5------6^5-------|------3------6---5-3--------6-3---------|
|--7-----7---------7--------7-----|--5-----5------------5------------------|
|----7-----7---------7--------7---|----5-----5-----------------------------|
|-5-------------------------------|-3--------------------------------------|
|---------------------------------|----------------------------------------|


|---------------------------------|---------------(5)--------------------|
|-------1-------------------------|-------5-------(5)--------------------|
|---3------3---3------2--------5--|---7-----7-----(7)--------------------|
|-----3------3------2---2----5--5-|-----7-----7---(7)--------------------|
|-1---------------0--------3------|-5-------------(5)--------------------|
|---------------------------------|--------------------------------------|


Verse 1: (w/Delay) 
|---------------------------------|--------------------------------|
|------3-------3--------3-------3-|------3-------3-------3-------3-|
|-2222----2222----2222-----2222---|-0000----0000----0000----0000---|
|---------------------------------|--------------------------------|
|---------------------------------|--------------------------------|
|---------------------------------|--------------------------------|


|---------------------------------|---------------------------------|
|------3-------3--------3-------3-|------3-------3--------3-------3-|
|---------------------------------|-2222----2222----2222-----2222---|
|-3333----3333-----2222----3333---|---------------------------------|
|---------------------------------|---------------------------------|
|---------------------------------|---------------------------------|

*Verse is close but not quite there.


[ Tab from: http://www.guitartabs.cc/tabs/s/staind/right_here_tab_ver_5.html ]
Chorus 1: (Distorted)
|---------------------------|----------------------------------|
|---------------------------|----------------------------------|
|---------------------------|---------------33333333-3---------|
|-33333333-3---55555555-5---|--00000000-0---33333333-3---------|
|-33333333-3---55555555-5---|--00000000-0---11111111-1---------|
|-33333333-3---55555555-5---|--00000000-0----------------------|

* There is another part in the chorus I didn't try to figure out.



Bridge:(Distorted)
|--------------------------|
|--------------------------|
|---7-7-7-------7-7-7------|
|---7-7-7---8---7-7-7---8--|
|---5-5-5---8---5-5-5---8--|
|-----------8-----------8--|


(Clean)
|------------5--------------------|-------------------------5^3------------|
|-----5----------5------6^5-------|------3------6---5-3--------6-3---------|
|--7-----7---------7--------7-----|--5-----5------------5------------------|
|----7-----7---------7--------7---|----5-----5-----------------------------|
|-5-------------------------------|-3--------------------------------------|
|---------------------------------|----------------------------------------|


|---------------------------------|---------------(5)--------------------|
|-------1-------------------------|-------5-------(5)--------------------|
|---3------3---3------2--------5--|---7-----7-----(7)--------------------|
|-----3------3------2---2----5--5-|-----7-----7---(7)--------------------|
|-1---------------0--------3------|-5-------------(5)--------------------|
|---------------------------------|--------------------------------------|



(Clean)
|---------------------------|----------------------------------|
|---------------------------|----------------------------------|
|---------------------------|---------------33333333-3---------|
|-33333333-3---55555555-5---|--00000000-0---33333333-3---------|
|-33333333-3---55555555-5---|--00000000-0---11111111-1---------|
|-33333333-3---55555555-5---|--00000000-0----------------------|



Chorus 1: (Distorted)
|---------------------------|----------------------------------|
|---------------------------|----------------------------------|
|---------------------------|---------------33333333-3---------|
|-33333333-3---55555555-5---|--00000000-0---33333333-3---------|
|-33333333-3---55555555-5---|--00000000-0---11111111-1---------|
|-33333333-3---55555555-5---|--00000000-0----------------------|


Verse 1 (Slow Fade Out)
Comments