Staind - Right Here Chords & Tabs

 

Right Here Chords & Tabs

Staind Chords & Tabs

Version: 2 Type: Tab 1 rating
1 star 2 stars 3 stars 4 stars 5 stars
comments

Right Here Tab

   
##################################################################################
# This file is the author's own work and represents their interpretation of the  #
# song. You may only use this file for private study, scholarship, or research.  #
##################################################################################

Title: Right here
Artist: Staind
Album: Chapter V

Instrument: Guitar

Tabbed by: Snap (uguil_snap@yahoo.com)

Tuning: Dropped D (D A D G B E)

To get the exact pattern just listen to the song and try to analize the ryhtm for good.

ELECTRIC GUITAR CHORD PATTERN:

INTRO FOR ELECTRIC GUITAR:

E|------17-(12)----(12)--------------------------------------||
B|--(12)--------------------------------(12)------------(12)-||
G|---------------------(7)------(7)----------(7)-------------||
D|-------------(7)---------(7)-------------------------------||
A|---------------------------------(9)-----------(9)-(5)-----||
D|-----------------------------------------------------------||

FOR VERSES:
        Bm
E|----------------|| (PALM MUTED)
B|----------------||
G|----------------||
D|--------0-------||  PLAY FOUR TIMES THEN SLIDE DOWN TO A
A|----9--9--7-----||
D|--9--9----------||
[ Tab from: http://www.guitartabs.cc/tabs/s/staind/right_here_tab_ver_2.html ]
        A
E|----------------||(PALM MUTED)
B|----------------||
G|----------------||
D|---------0------||  PLAY FOUR TIMES THEN SLIDE DOWN TO G
A|----7--7--------||
D|--7--7----------||

VERSION 1:  G
E|----------------||(PALM MUTED)
B|----------------||
G|----------------||
D|---------0------||  PLAY FOUR TIMES THEN SLIDE DOWN TO F#m
A|----5--5--------||
D|--5--5----------||

VERSION 2:
E|----------------||
B|----------------||
G|----------------|| You can play either of the two versions.
D|--------------0-|| It's accurate and almost thesame as the original one.
A|---------7-7----||
D|--5-5-5---------||

       F#m
E|----------------||(PALM MUTED)
B|----------------||
G|----------------||
D|---------0------||  PLAY THREE TIMES THEN SLIDE TO A
A|----4--4--------||
D|--4--4----------|| 

FOR CHORUS:
       D            F#m          Bm           G
E|------------|------------|------------|-------------||
B|------------|------------|------------|-------------||
G|--7-7x-----7|--6-6x-----6|--4-4x-----4|--7-7x-----7-||
D|--0-0x-----0|--4-4x-----4|--4-4x-----4|--5-5x-----5-|| 
A|--0-0x(6X)-0|--4-4x(6X)-4|--2-2x(6X)-2|--5-5x(6X)-5-||
D|--0-0x-----0|--4-4x-----4|------------|--5-5x-----5-||

FOR BRIDGE:
E|-------------------------||
B|-------------------------||
G|--4--4--4----------------||
D|--4--4--4--5-------------||
A|--2--2--2--5-------------||
D|-----------3-------------||

LEGEND:
( )-Harmonics
 x -Palm mute
Comments