Staind - Right Here Chords & Tabs

 

Right Here Chords & Tabs

Staind Chords & Tabs

Version: 1 Type: Tab 0 ratings
1 star 2 stars 3 stars 4 stars 5 stars
comments

Right Here Tab

   
##################################################################################
# This file is the author's own work and represents their interpretation of the  #
# song. You may only use this file for private study, scholarship, or research.  #
##################################################################################

Staind - Right here
tabber - Rage_On  ( email - ray_john@ntlworld.com )

Cool track, any comments, corrections just mail me. This is my interpretation and I'm not trying to 
emulate the song with 100% accuracy. Change/add anything you like but this should give you a good 
idea of how to play the song.

 
On the D at the end of the verse, use 9 quick down up strums letting the 9th ring, and also for 
each chord throughout chorus except the last Bm which is a single down strum. I dont play the 
chorus this way as this is an acoustic version but thats more or less the way its played in the 
song on the electric. Mix it up a little and use whats best for you. In the middle 8 use three 
down strums on the Bm and a single on the G's. All verses are picked, listen the the song for 
timings etc .

Tuning: Eb, Ab, Db, Gb, Bb, Eb
[ Tab from: http://www.guitartabs.cc/tabs/s/staind/right_here_tab.html ]
Chords:
A- 0 0 2 2 2 0
A*- 5 7 7 6 5 5  
Bm- 2 2 4 4 3 2
D- 5 5 7 7 7 5
F#m- 2 4 4 2 2 2
G- 3 5 5 4 3 3

Intro 
Bm A G F#m Bm* ( only play this Bm* pattern in intro and end of the middle 8, in verses play the 
                 Bm A G F#m pattern then repeat )

pick pattern

Bm     A

[-----------------2---------------------|-----------------0-------------2p0--------]
[-----------3--------3-------3p2--------|-----------2--------2---------------0-----]
[--------4-----4--------4---------4-----|--------2-----2--------2---------------2--]
[-----4-------------------4----------4--|-----2--------------------2---------------]
[--2------------------------------------|--0--------------------------0------------]
[---------------------------------------|------------------------------------------]


G     F#m

[-----------------------|--------------------------]
[-----------3-----------|--------2-----------2-----]
[--------4-----4--------|-----------2-----------2--]
[-----5-----------5-----|-----4-----------4--------]
[--5-----------------5--|--4-----------4-----------]
[-----------------------|--------------------------]




Bm* 

[-----------------------]
[-----------3-----------]
[--------4-----4--------]
[-----4-----------4-----]
[--2-----------------2--]
[-----------------------]

Hope this helps, Rock on !!!!!

Comments