Staind - Right Here Acoustic Intro Chords & Tabs

 

Right Here Acoustic Intro Chords & Tabs

Staind Chords & Tabs

Version: 1 Type: Chords 0 ratings
1 star 2 stars 3 stars 4 stars 5 stars
comments

Right Here Acoustic Intro Chords

   
BAND: STAIND
SONG: RIGHT HERE(ACOUSTIC)
TABBER: METALMOPAR

I've seen a lot of versions of this song for acoustic, but this is what i play.
If you have trouble with the song go here : http://blog.myspace.com/learnnewsongs
I'll try to post some of the covers i play every once and a while to help you out with timing.
If you got any questions or want to help me out with this idea email me Metalmopar@yahoo.com Enjoy.

CHORDS:
A   = xx222x
A*  = 577655  
Bm  = 224432
D   = 557775
F#m = 244322
G   = 355433

INTRO

Pick the Intro kind of slowly, you'll get a feel for it once you hear it, this tab is especially for those who enjoy singing the staind songs, got any questions just hit me up. MetalMopar@yahoo.com please type TAB in the subject line, enjoy.

Bm     A
[ Tab from: http://www.guitartabs.cc/tabs/s/staind/right_here_acoustic_intro_crd.html ]
[-----------------0---------------------|-----------0---0----------------------------]
[-----------3--------0------------------|---------2---2---0--------------------------]
[--------4-----4------------------------|-------2------------------------------------]
[-----4---------------------------------|-----0--------------------------------------]
[--2------------------------------------|--------------------------------------------]
[---------------------------------------|--------------------------------------------]


G     F#m

[--------0--------------|--------0-----------------]
[--------0--------------|--------0-----------------]
[--------4--------------|--------3-----------------]
[------5----------------|------4-------------------]
[----5------------------|----4---------------------]
[--3--------------------|--2-----------------------]

After F#m begin strumming Bm and begin the song...(Singing with it helps with the timing).

If you don't like the sound your getting from the chords play the chords skeleton..for example:


A   = xx222x
A*  = 577000  
Bm  = 224300
D   = 057700
F#m = 244300  
G   = 355400


NOTE: The end of the LAST Chorus strike the G only once and let your voice end the song, if you have a good voice, this is when you will prove it.  See, thats not so hard.

Comments