Staind - Reply Chords & Tabs

 

Reply Chords & Tabs

Staind Chords & Tabs

Version: 1 Type: Tab 0 ratings
1 star 2 stars 3 stars 4 stars 5 stars
comments

Reply Tab

   
Staind - Reply

I listened to the stream of Staind - Chapter V, and it is such an amazing CD.
If you like Staind, go out and buy it August 9th. I especially loved the way this song
was put together, and decided to tab it off of the stream. This is my first tab,
but I'm pretty sure that for the most part everything is correct. Granted, it was difficult
to hear some parts of the song because of the low quality of the stream.

Db Ab Db Gb Bb Eb

Intro:

Eb---------|
Bb---------|
Gb---------|
Db-9---7---|
Ab-7---5---|
Db-9---7---|x2

Eb-------------|
Bb-------------|
Gb-------------|
Db-5--2--9--7--|
Ab-3--0--7--5--|
Db-5--2--9--7--|

Verse:

Guitar 1:

Palm mute intro chords

Guitar 2:

Eb------3----------2----------3----2-3-2---7-7-3-3-----7-7-3-3-------2-3-2--------3---2--2--2--|
Bb----5--5-------5--5-------5--5--5-----5----------5-5--------5-5-5-------------5--5-5-5--5----|
Gb-4-4-4--4---4-4-4--4---4-4-4--4---------------------------------4----------4-4-4--4---4--4---|
Db---------------------------------------------------------------------------------------------|
Ab---------------------------------------------------------------------------------------------|
Db---------------------------------------------------------------------------------------------|

Chorus:

Eb--------------------|
Bb--------------------|
Gb--------------------|
Db-5---4---2---0---5--|
Ab-3---2---2---0---3--|
Db-5---4---2---0---5--|


Solo:
[ Tab from: http://www.guitartabs.cc/tabs/s/staind/reply_tab.html ]
Eb-14--------------------------------------12-12-|
Bb---------------------------------------12------|
Gb--------9-12-9-9~--7/9-12-9--14^-12--14^-------|
Db-----12----------------------------------------|
Ab-----------------------------------------------|
Db-----------------------------------------------|

Eb------12^-12h13h15-12--12-15-15^17-17^15-12--12h15-15^17-15-|
Bb----12---------------15--------------------15---------------|
Gb-14^--------------------------------------------------------|
Db------------------------------------------------------------|
Ab------------------------------------------------------------|
Db------------------------------------------------------------|

Eb-15^-15^-15^-15^-15^-15^17~--15^17--17^15--15-17-15-14-|
Bb-------------------------------------------------------|
Gb-------------------------------------------------------|
Db-------------------------------------------------------|
Ab-------------------------------------------------------|
Db-------------------------------------------------------|

Eb-/14^15-15^14-14^15-15^14-12-12-------------------------12--------------------|
Bb---------------------------------------15-12--12-15^17~---15-12---------------|
Gb-------------------------------14^16-14-----14-----------------14--------7h9--|
Db-----------------------------------------------------------------9-9-12-9-----|
Ab------------------------------------------------------------------------------|
Db------------------------------------------------------------------------------|


Outro:

Eb------3----------2----------3----2-3-2--|
Bb----5--5-------5--5-------5--5--5-----5-|
Gb-4-4-4--4---4-4-4--4---4-4-4--4---------|
Db----------------------------------------|
Ab----------------------------------------|
Db----------------------------------------|

Any suggestions? melodicenmity@yahoo.com
Comments