Staind - Reply (acoustic) Chords & Tabs

 

Reply (acoustic) Chords & Tabs

Staind Chords & Tabs

Version: 1 Type: Tab 1 rating
1 star 2 stars 3 stars 4 stars 5 stars
comments

Reply (acoustic) Tab

##################################################################################
# This file is the author's own work and represents their interpretation of the  #
# song. You may only use this file for private study, scholarship, or research.  #
##################################################################################

BAND: STAIND
SONG: REPLY (Acoustic)
Tabber: METALMOPAR


The acoustic version is pretty close to the electric version.  If you sing this song the timing will come 

to you much easier.  If you have any questions feel free to ask metalmopar@yahoo.com. It's not as hard as 

all the notes make it look lol, enjoy.



Intro
|----------------------------------|----------------------------------|
|----------------------------------|----------------------------------|
|----------------------------------|----------------------------------|
|--9-9-9-9-9-9-9-9-7-7-7-7-7-7-7-7-|-9-9-9-9-9-9-9-9-7-7-7-7-7-7-7-7--|
|--7-7-7-7-7-7-7-7-5-5-5-5-5-5-5-5-|-7-7-7-7-7-7-7-7-5-5-5-5-5-5-5-5--|
|----------------------------------|----------------------------------|

|----------------------------------|----------------------------------|
|----------------------------------|----------------------------------|
|----------------------------------|----------------------------------|
|--5-5-5-5-5-5-5-5-4-4-4-4-4-4-4-4-|-9-9-9-9-9-9-9-9-7-7-7-7-7-7-7-7--|
|--3-3-3-3-3-3-3-3-2-2-2-2-2-2-2-2-|-7-7-7-7-7-7-7-7-5-5-5-5-5-5-5-5--|
|----------------------------------|----------------------------------|

Verse
|----------------------------------|----------------------------------|
|----------------------------------|----------------------------------|
|----------------------------------|----------------------------------|
|--9-9-9-9-9-9-9-9-7-7-7-7-7-7-7-7-|-9-9-9-9-9-9-9-9-7-7-7-7-7-7-7-7--|
|--7-7-7-7-7-7-7-7-5-5-5-5-5-5-5-5-|-7-7-7-7-7-7-7-7-5-5-5-5-5-5-5-5--|
|----------------------------------|----------------------------------|
 "..Seen to many...sad eyes look at..me..............eyes etc." (Trying to help you with timing)

[ Tab from: http://www.guitartabs.cc/tabs/s/staind/reply_acoustic_tab.html ]
                                     (*)
|----------------------------------|----------------------------------|
|----------------------------------|----------------------------------|
|----------------------------------|----------------------------------|
|--5-5-5-5-5-5-5-5-4-4-4-4-4-4-4---|--9-9-9-9-9-9-9-9-7-7-7-7-7-7-7-7-|
|--3-3-3-3-3-3-3-3-2-2-2-2-2-2-2---|--7-7-7-7-7-7-7-7-5-5-5-5-5-5-5-5-|
|----------------------------------|----------------------------------|
"..free, all the...places that.etc.)  ^Play this w/no words then start with the next verse from the top.

Chorus

|----------------------------------|---------------------------------|
|----------------------------------|---------------------------------|
|----------------------------------|---------------------------------|
|--5-5-5-5-5-5-5-5-4-4-4-4-4-4-4-4-|-9-9-9-9-7-7-7-7-5-5-5-5-5-5-5-5-|
|--3-3-3-3-3-3-3-3-2-2-2-2-2-2-2-2-|-7-7-7-7-5-5-5-5-3-3-3-3-3-3-3-3-|
|----------------------------------|---------------------------------|
  "thank...........You..........."   ^Strum this going with the lyrics after "thank you" i wasn't sure on 

the strum count.  But you should be able to just feel it.

|------------------------------------|---------------------------------|
|------------------------------------|---------------------------------|
|------------------------------------|---------------------------------|
|--5-5-5-5-5-5-5-5-4-4-4-4-4-4-4-4---|-9-9-9-9-7-7-7-7-5-5-5-5-5-5-5-5-|
|--3-3-3-3-3-3-3-3-2-2-2-2-2-2-2-2---|-7-7-7-7-5-5-5-5-3-3-3-3-3-3-3-3-|
|------------------------------------|---------------------------------|
              "And for.............."  ^Strum this going with the lyrics after "thank you" i wasn't sure 

on the strum count.  But you should be able to just feel it.

|-----------------------------------|
|-----------------------------------|
|-----------------------------------|
|-5-5-5-5-5-5-5-5-4-4-4-4-4-4-4-4---|
|-3-3-3-3-3-3-3-3-2-2-2-2-2-2-2-2---|
|-----------------------------------|
              "And wait..."          "For me"(Sing without guitar "for me" then play the verse from the *)


BRIDGE:
The Bridge is the verse but you only hit the chords once or twice through the lyrics you don't strum 

through the bridge.  Then you pick up on strumming when you head back to the Chorus, i labeled the lyrics 

at the bottom for some guidance.




(This the electric part over the verse, you can sprinkle it throughout the song on acoustic if you want)
|----------------------------------|----------------------------------|
|----------7--------------6--------|----------7-------6--7--6--4------|
|------8-----8~~-----8------8~~----|------8-----8---8-----------------|2x
|----8---8---------8---8-----------|----8---8-----8-------------------|
|----------------------------------|----------------------------------|
|----------------------------------|----------------------------------|
Comments