Staind - Reality Chords & Tabs

 

Reality Chords & Tabs

Staind Chords & Tabs

Version: 2 Type: Tab 0 ratings
1 star 2 stars 3 stars 4 stars 5 stars
comments

Reality Tab

   
Staind - Reality
14 Shades of Grey
Tuning:Eb Ab Db Gb Bb Eb

Intro/Verse
eb------------------------------------------------------------|
Bb------------------------------------------------------------|
Gb--------0------0--0-----------------------------------------|
Db----4-----4----4--4-------4-----4-4-2----4------7-7-7-7-7---|
Ab--2---2-----2--2--2---0-2---2----------2----2-4-5-5-5-5-5---|
Eb------------------------------------------------------------|
		       |--------|p.m
[ Tab from: http://www.guitartabs.cc/tabs/s/staind/reality_tab_ver_2.html ]
Chorus
eb------------------------------------------------------------|
Bb------------------------------------------------------------|
Gb------------------------------------------------------------|
Db--10--10------5-5-----10--10------9-9-----------------------|
Ab--10--10------5-5-----10--10------9-9-----------------------|
Eb---8---8------3-3------8---8------7-7-----------------------|

Bridge
eb------------------------------------------------------------|
Bb------------------------------------------------------------|
Gb--9-9-9-----5-5-5-----2-2-2-----4-4-4-----------------------|
Db--9-9-9-----5-5-5-----2-2-2-----4-4-4-----------------------|
Ab--7-7-7-----3-3-3-----0-0-0-----2-2-2-----------------------|
Eb------------------------------------------------------------|
let the 0s ring on the Bb & eb string

Ending Riff
eb------------------------------------------------------------|
Bb------------------------------------------------------------|
Gb--4-2-------------------------------------------------------|
Db--4-2-5-7-5-7-2---------------------------------------------|
Ab--2-0-5-7-5-7-2---------------------------------------------|
Eb------3-5-3-5-0---------------------------------------------|
Comments