Staind - Reality Chords & Tabs

 

Reality Chords & Tabs

Staind Chords & Tabs

Version: 1 Type: Bass Tab 0 ratings
1 star 2 stars 3 stars 4 stars 5 stars
comments

Reality Bass Tab

Band- Staind
Song- Reality

INTRO & VERSE
|------------------------------------------------|
|------------------------------------------------|
|-----------2-/-6--6-------4--h6--6----6-/-8--6--|
|-1----1--------------4--------------------------|

Chorus
|--------------------------------------------------------|
|--------------------------------------------------------|
|-4---4-4-/-6--h8----------------4---4-4---4-3---3-3---3-|
|------------------4---4-4---4/7-------------------------|
[ Tab from: http://www.guitartabs.cc/tabs/s/staind/reality_btab.html ]
verse again!
chorus again!

Bridge
|-------------------------------------------------------------------------|
|-------------------------------------------------------------------------|
|-------------------4--4--4--4--4--4--1--1--1--1--1--1--3--3--3--3--3--3--|
|-1--1--1--1--1--1-------------------(6--6--6--6--6--6)-------------------|

Verse again
bridge again

the last note's
|----------------------------|
|----------------------------|
|-3--3--3--3--3--3-----------|
|-------------------1--------|
Comments