Staind - Raw Chords & Tabs

 

Raw Chords & Tabs

Staind Chords & Tabs

Version: 3 Type: Tab 0 ratings
1 star 2 stars 3 stars 4 stars 5 stars
comments

Raw Tab

Band: Staind
Song: Raw
Album: Dysfunction
Tabbed by: w1crazymofo@bolt.com
Tuning: Drop Db

Riff 1 
Eb|------------------------------0h1--|
Bb|--------------------------0h1------|
Gb|-----------------------------------|
Db|--0h1-0-0-0h1-0-0h1-0-0-0----------|
Ab|--0h1-0-0-0h1-0-0h1-0-0-0----------|
Db|--0h1-0-0-0h1-0-0h1-0-0-0----------|
   PM    ^ ^     ^     ^ ^ ^
[ Tab from: http://www.guitartabs.cc/tabs/s/staind/raw_tab_ver_3.html ]
Verse
Eb|----------------------------------------------|---------------------------|
Bb|----------------------------------------------|---------------------------|
Gb|----------------------------0----0-----0---0--|---------------------------|
Db|-----7---7------7----7---------1---------1----|-----7---7------7---5---1--|
Ab|-------5-----------5--------------------------|-------5----------5-----1--|
Db|--4----------5-----------1----------1---------|--4----------5----------1--|
          								PM^
Chorus   guitar 1
Eb|--------------|
Bb|--9------9-^--|
Gb|--11-----11^--|
Db|--------------|
Ab|--------------|
Db|--------------|
	 guitar 2 
Eb|------------|------------|
Bb|------------|------------|
Gb|------------|------------|
Db|--5----6----|--5----3----|
Ab|--3----4----|--3----1----|
Db|--3----3----|--3----1----|
 
Bridge
Eb|-------------------------------------------------------------------|
Bb|-------------------------------------------------------------------|
Gb|-------------------------------------------------------------------|
Db|-------------------------------------------------------------------|
Ab|--------------------------------------------------6-5-5-5-5-6-6-5--|
Db|--7-7-7-7-8-8-8-8-7-7-7-7-8-8-8-8-7-7-7-7-8-8-8-8------------------|
  PM \_____________________________________________________________/

Eb|--------------------------------------------------|
Bb|--------------------------------------------------|
Gb|-----------------------------------8-7--8-7--8-7--|
Db|--7-7-8-7-8--7-7-8-7-8--7-7-8-7-8--8-7--8-7--8-7--|
Ab|--7-7-8-7-8--7-7-8-7-8--7-7-8-7-8--6-5--6-5--6-5--|
Db|--7-7-8-7-8--7-7-8-7-8--7-7-8-7-8-----------------|
Comments