Staind - Price To Play Chords & Tabs

 

Price To Play Chords & Tabs

Staind Chords & Tabs

Version: 3 Type: Tab 0 ratings
1 star 2 stars 3 stars 4 stars 5 stars
comments

Price To Play Tab

   
Artist - Staind
Song - Price to play
Album - 14 Shades of Grey
Tuning - G# Eb Ab Db Gb Bb 

Intro/ Verse
PM during verse
Bb-------------------------------------------------------------------------
Gb-------------------------------------------------------------------------
Db-------------------------------------------------------------------------
Ab---5-5-5-3---5-5-5-3---5-5-3---5-5-5-3---5-5-5-3---6-6-6-----------------
Eb---5-5-5-3---5-5-5-3---5-5-3---5-5-5-3---5-5-5-3---6-6-6-----------------
G#---5-5-5-3---5-5-5-3---5-5-3---5-5-5-3---5-5-5-3---6-6-6----------------- 

Pre-Chorus
Bb-------------------------------------------------------------------------
Gb-------------------------------------------------------------------------
Db-------------------------------------------------------------------------
Ab---5-3-5-3-5-3---5-3-5-3-6-6-6-------------------------------------------
Eb---5-3-5-3-5-3---5-3-5-3-6-6-6-------------------------------------------
G#---5-3-5-3-5-3---5-3-5-3-6-6-6------------------------------------------- 
[ Tab from: http://www.guitartabs.cc/tabs/s/staind/price_to_play_tab_ver_3.html ]
Bb-------------------------------------------------------------------------
Gb-------------------------------------------------------------------------
Db------------------------10-10-10-10--------------------------------------
Ab---5-3-5-3-5-3---5-3-5-3-x--x--x--x--------------------------------------
Eb---5-3-5-3-5-3---5-3-5-3-8--8--8--8--------------------------------------
G#---5-3-5-3-5-3---5-3-5-3------------------------------------------------- 

Chorus
Bb-------------------------------------------------------------------------
Gb---3------------5-------------7------------------------------------------
Db---3------------5-------------7------------------------------------------
Ab---1------------3-------------5------------------------------------------
Eb---1------------3-------------5------------------------------------------
G#---1------------3-------------5------------------------------------------ 

Breakdown
Bb-------------------------------------------------------------------------
Gb-------------------------------------------------------------------------
Db-----------------------10-10-10-10-10------------------------------------
Ab---5-5-5-5-5-5-5-5-5-5--x--x--x--x--x------------------------------------
Eb---5-5-5-5-5-5-5-5-5-5--8--8--8--8--8------------------------------------
G#---5-5-5-5-5-5-5-5-5-5--------------------------------------------------- 

sounds good to me; below is the tuning

7 string guitar(standard)
E ----/ dont need it ----\ 
B ----/ 1/2 step down ----\ Eb
G ----/ 1/2 step down ----\ Gb
D ----/ 1/2 step down ----\ Db
A ----/ 1/2 step down ----\ Ab
E ----/ 1/2 step down ----\ Eb
B ----/ 1 1/2 step down ----\ G#
Comments