Staind - Price To Play Chords & Tabs

 

Price To Play Chords & Tabs

Staind Chords & Tabs

Version: 1 Type: Tab 0 ratings
1 star 2 stars 3 stars 4 stars 5 stars
comments

Price To Play Tab

   
"Price to Play"
Staind

Tuning: Guitar 1: Drop-D, one half step down (Db, Ab, Db, Gb, Bb, Eb)
        Guitar 2: (Gb, Db, Ab, Db, Gb, Bb)

Notes: Ok, if you follow Mike Mushok's playing at all, you know he loves to tune
extremly low. But, typically there is a guitar in Drop-D tuning a half step down in 
the track somewhere, so the songs can be played with a normal guitar. Mushok plays
Guitar 2's part live, but I'm going to show you both ways (because most of us can't
buy that new Ibanez Mike Mushok Baritone Guitar for the low tunings he uses.)

The Sound: nice, nu-metal distortion with the eq controls roughly at;
High: 5,  Medium: 7,  Low: 7, and a gain of about 6 or 7. Experiment, and see if you
can find a better sound. This is just what the recording sounds like to me...


Riff 1:

Guitar 1
-----|-------------------------------------------------|------------------|--------
-----|-------------------------------------------------|------------------|--------
-----|-------------------------------------------------|--repeat measure 2|--------
-0-0-|--5--x--0--0--5--0---5--0---5--0--0--5--0--5-5-5-|------------------|-1-1-1-1
-0-0-|--3--x--0--0--3--0---3--0---3--0--0--3--0--3-3-3-|----add this->----|-1-1-1-1
-0-0-|-----x--0--0-----0------0------0--0-----0--------|------------------|-1-1-1-1

Gutiar 2
-----|-------------------------------------------------|------------------|
-----|-------------------------------------------------|------------------|
-----|-------------------------------------------------|--repeat measure 2|
-----|-------------------------------------------------|------------------|
---0-|--5--0-----0--5-------5---0-5--7--7--5--0----0--0|------------------|
-7---|--5-----7-----5--0--0-5-7---5--7--7--5-----8---8-|------------------|

Verse:
[ Tab from: http://www.guitartabs.cc/tabs/s/staind/price_to_play_tab.html ]
Play Riff 1 palm muted until pre-chorus.

Guitar 2 adds....
--------------
--------------
--------------
--------------
-10-10-10-10--
-10-10-10-10-- at the end, before the pre-chorus.


Pre Chorus:
Play Riff 1 with the extra Guitar 2 part.

Guitar 1 adds...             and.... before chorus
--------------             --------------------
--------------             --------------------
--------------             --------------------
--5-5-5-5-----             ---6-6-6-6----------
--3-3-3-3-----             ---6-6-6-6----------
--3-3-3-3-----             ---6-6-6-6----------
                            Natural Harmonic----|

Chorus:

Guitar 1
---------------------------|----|----|
---------------------------|----|----|
---------------------------|----|----|
-10--10--10-10--10-10---10-|-11-|-14-|
-8---8---8--8---8--8----8--|-11-|-12-|
-8---8---8--8---8--8----8--|-10-|-12-|
                            Same rhythm, 
                            one bar each

Guitar 2
---------------------------|----|----|
---------------------------|----|----|
-10--10--10-10--10-10---10-|-11-|-14-|
-8---8---8--8---8--8----8--|-11-|-12-|
-8---8---8--8---8--8----8--|-10-|-12-|
---------------------------|----|----|

Last part of the chorus play...

Guitar 1
-----
-----
-----
-15--same rhythm
-12--
-12--

Guitar 2
-----
-----
-15--same rhythm
-12--
-12--
-----

Outro

Guitar 1
------------------------------
------------------------------
------------------------------
------------------------------
--7--7--7--7--7----7777-------
--7--7--7--7--7----7777-------
p.m.........................

Guitar 2
------------------------------
------------------------------
------------------------------
--7--7--7--7--7----7777-------
--7--7--7--7--7----7777-------
------------------------------
p.m.........................


www.angelfire.com/alt/metaljesse0


Comments