Staind - Pressure Chords & Tabs

 

Pressure Chords & Tabs

Staind Chords & Tabs

Version: 1 Type: Tab 0 ratings
1 star 2 stars 3 stars 4 stars 5 stars
comments

Pressure Tab

Band  : Staind
Song  : Pressure
Album : Break the Cycle
Author: PagAn (c0ld14@hotmail.com)

Tuning: As with most Staind songs, Mike plays with his 6 string guitar
        which has the low B of a 7 string guitar but without the high 
        E. From there, all strings drop one half step, then the low E 
        and low B drop one step.

Intro/Pre-Chorus/Outro:(w/dist)[Play Twice]
Bb|--------------------------------------------------------| 
Gb|--------------------------------------------------------| 
Db|-----4------------4-------4------------4----------------|
Ab|--------------------------------------------------------|
Db|-4-4---4-4--4-4-4---4-4-4---4-4--4-4-4---5--------------|
Ab|-2-2---2-2--2-2-2---2-2-2---2-2--2-2-2---3--------------|

Verse:(w/dist, let chord ring out)[Play Once}
Bb|--------------------------------------------------------|
Gb|--------------------------------------------------------|
Db|--------------------------------------------------------|
Ab|--------------------------------------------------------|
Db|-8------------------------------------------------------| 
Ab|-6------------------------------------------------------|
[ Tab from: http://www.guitartabs.cc/tabs/s/staind/pressure_tab.html ]
Chorus:(w/dist and phaser)[Play Twice]
Bb|--------------------------------------------------------| 
Gb|--------------------------------------------------------| 
Db|--------------------------------------------------------| 
Ab|--------------------------------------------------------| 
Db|-11---7---4---4-----11---7---4---4--12-9----------------| 
Ab|-9----5---2---2-----9----5---2---2--10-7----------------|

1st Half of Bridge:(w/dist)[Play Once]
Bb|--------------------------------------------------------| 
Gb|--------------------------------------------------------| 
Db|--------------------------------------------------------|
Ab|-4--4-4-5-4-4-4--4-4-4-5-4-4-4-4-4----------------------|
Db|--------------------------------------------------------|
Ab|--------------------------------------------------------|

2nd Half of Bridge:(w/dist)[Play 2 Times]
Bb|--------------------------------------------------------| 
Gb|--------------------------------------------------------| 
Db|--------------------------------------------------------|
Ab|--------------------------------------------------------|
Db|-7-6--6-6--6-7-6--6-6--6-7-6--6-6--6-7-6---9------------|
Ab|-5-4--4-4--4-5-4--4-4--4-5-4--4-4--4-5-4---7------------|

Bb|--------------------------------------------------------| 
Gb|--------------------------------------------------------| 
Db|--------------------------------------------------------|
Ab|--------------------------------------------------------|
Db|-7-6--6-6--6-7-6--6-6--6-7-6--6-6--6-7-6---4------------|
Ab|-5-4--4-4--4-5-4--4-4--4-5-4--4-4--4-5-4---2------------|

Thats all, if there is anything wrong, just tell me.
Comments