Staind - Outside Chords & Tabs

 

Outside Chords & Tabs

Staind Chords & Tabs

Version: 7 Type: Tab 0 ratings
1 star 2 stars 3 stars 4 stars 5 stars
comments

Outside Tab

Author/Artist: Staind 
Title: Outside (studio version) 
Album: Break The Cycle 
Transcribed by: Brach A.G. Cooper 
Email: brachcp@netscape.net 

this version differs from the live acoustic version b/c it has some elctric 
guitar licks in the background that sound really cool.  I recomend getting 
a friend to play one part and yourself to play the other.  This song must 
be tunned down half a step to Eb, Ab, Db, Gb, Bb,and Eb  in order for it to 
sound right.  the second guitar that is an electric is tuned in standard 
tunning.  Use heavy distortion on the guitar playing power chords durring 
chorus and 3rd verse. for the rythym guitar feel free to add in any little 
quick up and down strokes between chords. get creative. 

N E WAY      ENJOY.........  

------------------------------------------------------------------------------ 
------------------------------------------------------------------------------ 
--9--9--9-9--9---7--7--7-7--7-x-x-x------------------------------------------- 
--9--9--9-9--9---7--7--7-7--7-x-x-x-5--5--5-5--5---7--7--7-7--7--------------- 
--7--7--7-7--7---5--5--5-5--5-x-x-x-5--5--5-5--5---7--7--7-7--7--------------- 
------------------------------------3--3--3-3--3---5--5--5-5--5--------------- 
 Intro- play one time through then this second part comes in                   
[ Tab from: http://www.guitartabs.cc/tabs/s/staind/outside_tab_ver_7.html ]
--6---6---7-6---4---4---6-4---4----2---4-2---6-2-------2---4-2---------------- 
----4---4-----4---4---4-----4----2---2-----2-------0h2---2-------------------- 
------------------------------------------------------------------------------ 
------------------------------------------------------------------------------ 
------------------------------------------------------------------------------ 
------------------------------------------------------------------------------ 
   These two parts are the intro, verses, and outro.                           

--0--0--0-0--0-----3--3--3-3--3-----2--2--2-2--2-----0--0--0-0--0------------- 
--0--0--0-0--0-----3--3--3-3--3-----3--3--3-3--3-3-3-2--2--2-2--2------------- 
--1--1--1-1--1-----0--0--0-0--0-----2--2--2-2--2-2-2-2--2--2-2--2-2-2--------- 
--2--2--2-2--2-2-2-0--0--0-0--0-0-0-0--0--0-0--0-0-0-2--2--2-2--2-2-2--------- 
--2--2--2-2--2-2-2-2--2--2-2--2-2-2-0--0--0-0--0-----0--0--0-0--0-0-0--------- 
--0--0--0-0--0-0-0-3--3--3-3--3-3-3------------------0--0--0-0--0------------- 
  Chorus                                                                       

------------------------------------------------------------------------------ 
-------------------6---------------------------------------------------------- 
--8----------------6----------------6----------------------------------------- 
--8----------------4----------------6----------------6------------------------ 
--6---------------------------------4----------------6------------------------ 
-----------------------------------------------------4------------------------ 
  ................. ................ ................ ................         

------------------------------------------------------------------------------ 
------------------------------------------------------------------------------ 
--8----------------6---------------------------------------------------------- 
--8----------------6----------------4----------------6------------------------ 
--6----------------4----------------4----------------6------------------------ 
------------------------------------2----------------4------------------------ 
 3rd Verse     second guitar                                                   


Comments