Staind - Outside Chords & Tabs

 

Outside Chords & Tabs

Staind Chords & Tabs

Version: 6 Type: Tab 0 ratings
1 star 2 stars 3 stars 4 stars 5 stars
comments

Outside Tab

   
##################################################################################
# This file is the author's own work and represents their interpretation of the  #
# song. You may only use this file for private study, scholarship, or research.  #
##################################################################################

Aaron Lewis of Staind w/Fred Durst - Outside
Family Values Tour 99

I took this from the video of this performance.  It's a simple song 
and this is right.

* Intro *

* Verse *
        E             D                 G             A
-----------------------------------------------------------
-----------------------------------------------------------
--------9-------------7------------------------------------
--------9-------------7-----------------5-------------7----
--------7-------------5-----------------5-------------7----
----------------------------------------3-------------5----

"When you,            bring me to a     knee"
Repeat throughout the verse

* Chorus *
Full Chords
  654321
E 022100
G 320033
D x00232
A 002220

Comments, Suggestions, or whatever, email me at mexicano3@hotmail.com


**************************************************************************************************************

**************************************************************************************************************


"Outside" as performed live on the Family Values Tour by Arron Lewis of Staind with Fred Durst

I edited this transcription to make it better, not to insult the previous transcribers' skills.

These are the basic chords played throughout the song. 
The rythem isn't hard to figuire out, just listen to it and work with it.  

Verses:
[ Tab from: http://www.guitartabs.cc/tabs/s/staind/outside_tab_ver_6.html ]
     Eb5        C#5        F#       Ab minor
e ---------  --------  -----2----  ----4----
B ---------  --------  -----2----  ----4----
G ----8----  ----6---  -----3----  ----4----
D ----8----  ----6---  -----4----  ----6----
A ----6----  ----4---  -----4----  ----6----
E ---------  --------  -----2----  ----4----


Chorus:

     Eb5         F#5        Db          Ab
e ---------   ---------  ---------  ----4-----
B ---------   ---------  ----4----  ----4-----
G ----8----   ----11---  ----6----  ----5-----
D ----8----   ----11---  ----6----  ----6-----
A ----6----   ----9----  ----4----  ----6-----
E ---------   ---------  ----4----  ----4-----

************************************************************************************************************************

************************************************************************************************************************


Outside - Aaron Lewis of Staind and Fred Durst of Limp Bizkit
Family Values Tour 99

Alright, I made a mistake on the first tab I sent in.  Everything is
right on the tab except the fact that you have to drop each string 
down half a step.  So all of the notes are flats.

* Intro and Verse *
Listen to the recording for the strumming, it's pretty easy

     Eb          Db                 Gb          Ab
eb------------------------------------------------
bb------------------------------------------------
gb---9-----------7--------------------------------
db---9-----------7------------------5-----------7-
ab---7-----------5------------------5-----------7-
Eb----------------------------------3-----------5-

* Chorus *
Use full chords
   654321
Eb 022100
Gb 320033
Db x00232
Ab 002220

Comments, Questions, or Suggestions email me at mexicano3@hotmail.com



Comments