Staind - Outside Chords & Tabs

 

Staind Chords & Tabs

Version: 5 Type: Tab 0 ratings
1 star 2 stars 3 stars 4 stars 5 stars
comments

Outside Tab

   
##################################################################################
# This file is the author's own work and represents their interpretation of the  #
# song. You may only use this file for private study, scholarship, or research.  #
##################################################################################

==========================================         
=          Staind - Outside              =         ~~~~~~~~~~~~~~~~~~~~   
=              Tabbed By                 =         ~ Tuning: Standard ~
=                 Navi                   =         ~~~~~~~~~~~~~~~~~~~~
========================================== 


*********
* Intro * 
*********
(The parts in bracets should only be played in Live or Aquistic version)

   e ||--------------------|---------------------|---------------------|
   B ||--------------------|---------------------|---------------------|
   G ||-----9--9-999(9)----|--7----7-777--7-777--|---------------------|
   D ||-----9--9-999(9)----|--7----7-777--7-777--|---5--5-555-(555)----|
   A ||-----7--7-777(7)----|--5----5-555--5-555--|---5--5-555-(555)----|
   E ||--------------------|---------------------|---3--3-333-(333)----|
Strum :     *  * *^*(^)       *    * *^*  * *^*      *  * *^* (*^*)  
   
   e ||----------------------|
   B ||----------------------|
   G ||----------------------|
   D ||---7-7-7777-7-7-------|
   A ||---7-7-7777-7-7-------|
   E ||---5-5-5555-5-5-------|
          * * *^*^ * *
 
[ Tab from: http://www.guitartabs.cc/tabs/s/staind/outside_tab_ver_5.html ]
    e ||--------------------|---------------------|---------------------|
    B ||--------------------|---------------------|---------------------|
    G ||-----9--9-999(9)----|--7----7-777--7-777--|---------------------|
    D ||-----9--9-999(9)----|--7----7-777--7-777--|---5--5-555-(555)----|
    A ||-----7--7-777(7)----|--5----5-555--5-555--|---5--5-555-(555)----|
    E ||--------------------|---------------------|---3--3-333-(333)----|
 Strum :     *  * *^*(^)       *    * *^*  * *^*      *  * *^* (*^*)        

    e ||----------------------||
    B ||----------------------||
    G ||----------------------||
    D ||---7-77(7)-7----------||
    A ||---7-77(7)-7----------||
    E ||---5-55(5)-5----------||
           * *^(*) *  

~~~~~~~                                   ~~~~~~~~~~      ~~~~~~~~~~~~~~~~~ 
~ Key ~                                   ~ Chords ~      ~ 0: Play clean ~
~~~~~~~                                   ~~~~~~~~~~      ~ X: Don't play ~        
x      Scratch                                654321      ~~~~~~~~~~~~~~~~~   
:      Let ring                               ||||||     
/      Slide                              E   022100
b      Bend                               G   320033
br     Bend and release                   D   X00232 
h      Hammer                             A   002220
p      Pick                                       
pl_s   Pleck scratch                           
[_]    Palm mute                                 
...    Let ring
*      Strum down
^      Strum up
()     Tips & Hints

This sound pretty good and almost if not perfect. This is one of my persenal favourates, since I
tabbed it from scratch. It took me a while to get down the fine detail and strum patterns but it
was all me baby. It's an easy song so enjoy!

E-mail me at navibound@hotmail.com

   
Comments