Staind - Outside Chords & Tabs

 

Outside Chords & Tabs

Staind Chords & Tabs

Version: 4 Type: Tab 2 ratings
1 star 2 stars 3 stars 4 stars 5 stars
comments

Outside Tab

STAIND - OUTSIDE

VERSE - INTRO
Guitar 1
-------------------------------------
-------------------------------------
-------------------------------------
8--8-8-8-8--6--6-6-6-6--4--4-4-4-4--6
8--8-8-8-8--6--6-6-6-6--4--4-4-4-4--6
6--6-6-6-6--4--4-4-4-4--2--2-2-2-2--4

-------------------------------------
-------------------------------------
-------------------------------------
8--8-8-8-8--6--6-6-6-6--4--4-4-4-4--6
8--8-8-8-8--6--6-6-6-6--4--4-4-4-4--6
6--6-6-6-6--4--4-4-4-4--2--2-2-2-2--4

VERSE
-------------------------------------
-------------------------------------
-------------------------------------
8--8-8-8-8--6--6-6-6-6--4--4-4-4-4--6
8--8-8-8-8--6--6-6-6-6--4--4-4-4-4--6
6--6-6-6-6--4--4-4-4-4--2--2-2-2-2--4

-------------------------------------
-------------------------------------
-------------------------------------
8--8-8-8-8--6--6-6-6-6--4--4-4-4-4--6
8--8-8-8-8--6--6-6-6-6--4--4-4-4-4--6
6--6-6-6-6--4--4-4-4-4--2--2-2-2-2--4

-------------------------------------
-------------------------------------
-------------------------------------
8--8-8-8-8--6--6-6-6-6--4--4-4-4-4--6
8--8-8-8-8--6--6-6-6-6--4--4-4-4-4--6
6--6-6-6-6--4--4-4-4-4--2--2-2-2-2--4

-------------------------------------
-------------------------------------
-------------------------------------
8--8-8-8-8--6--6-6-6-6--4--4-4-4-4--6
8--8-8-8-8--6--6-6-6-6--4--4-4-4-4--6
6--6-6-6-6--4--4-4-4-4--2--2-2-2-2--4

Guitar 2 - play this twice through the verse

--------------------------------------------------------------
11--11-11-11-11-12-11--9-4-9-9-9-9-11-9-11-9-2-7-9-7--11-7-0-7
--------------------------------------------------------------
--------------------------------------------------------------
--------------------------------------------------------------
--------------------------------------------------------------

CHORUS
0--0-0-0-0-3--3-3-3-3-3-3-3-3-3-3-0-0-0-0-0-0
0--0-0-0-0-3--3-3-3-3-2-2-2-2-2-2-2-2-2-2-2-2
0--0-0-0-0-0--0-0-0-0-3-3-3-3-3-3-2-2-2-2-2-2
2--2-2-2-2-0--0-0-0-0-0-0-0-0-0-0-2-2-2-2-2-2
2--2-2-2-2-2--2-2-2-2-x-x-x-x-x-x-0-0-0-0-0-0
0--0-0-0-0-3--3-3-3-3-x-x-x-x-x-x-0-0-0-0-0-0

0--0-0-0-0-3--3-3-3-3-3-3-3-3-3-3-0-0-0-0-0-0
0--0-0-0-0-3--3-3-3-3-2-2-2-2-2-2-2-2-2-2-2-2
0--0-0-0-0-0--0-0-0-0-3-3-3-3-3-3-2-2-2-2-2-2
2--2-2-2-2-0--0-0-0-0-0-0-0-0-0-0-2-2-2-2-2-2
2--2-2-2-2-2--2-2-2-2-x-x-x-x-x-x-0-0-0-0-0-0
0--0-0-0-0-3--3-3-3-3-x-x-x-x-x-x-0-0-0-0-0-0


-------------------------------------
-------------------------------------
-------------------------------------
8--8-8-8-8--6--6-6-6-6--4--4-4-4-4--6
8--8-8-8-8--6--6-6-6-6--4--4-4-4-4--6
6--6-6-6-6--4--4-4-4-4--2--2-2-2-2--4

-------------------------------------
-------------------------------------
-------------------------------------
8--8-8-8-8--6--6-6-6-6--4--4-4-4-4--6
8--8-8-8-8--6--6-6-6-6--4--4-4-4-4--6
6--6-6-6-6--4--4-4-4-4--2--2-2-2-2--4
[ Tab from: http://www.guitartabs.cc/tabs/s/staind/outside_tab_ver_4.html ]
-------------------------------------
-------------------------------------
-------------------------------------
8--8-8-8-8--6--6-6-6-6--4--4-4-4-4--6
8--8-8-8-8--6--6-6-6-6--4--4-4-4-4--6
6--6-6-6-6--4--4-4-4-4--2--2-2-2-2--4

-------------------------------------
-------------------------------------
-------------------------------------
8--8-8-8-8--6--6-6-6-6--4--4-4-4-4--6
8--8-8-8-8--6--6-6-6-6--4--4-4-4-4--6
6--6-6-6-6--4--4-4-4-4--2--2-2-2-2--4

Guitar 2 - play this twice through the verse

--------------------------------------------------------------
11--11-11-11-11-12-11--9-4-9-9-9-9-11-9-11-9-2-7-9-7--11-7-0-7
--------------------------------------------------------------
--------------------------------------------------------------
--------------------------------------------------------------
--------------------------------------------------------------

CHORUS
0--0-0-0-0-3--3-3-3-3-3-3-3-3-3-3-0-0-0-0-0-0
0--0-0-0-0-3--3-3-3-3-2-2-2-2-2-2-2-2-2-2-2-2
0--0-0-0-0-0--0-0-0-0-3-3-3-3-3-3-2-2-2-2-2-2
2--2-2-2-2-0--0-0-0-0-0-0-0-0-0-0-2-2-2-2-2-2
2--2-2-2-2-2--2-2-2-2-x-x-x-x-x-x-0-0-0-0-0-0
0--0-0-0-0-3--3-3-3-3-x-x-x-x-x-x-0-0-0-0-0-0

0--0-0-0-0-3--3-3-3-3-3-3-3-3-3-3-0-0-0-0-0-0
0--0-0-0-0-3--3-3-3-3-2-2-2-2-2-2-2-2-2-2-2-2
0--0-0-0-0-0--0-0-0-0-3-3-3-3-3-3-2-2-2-2-2-2
2--2-2-2-2-0--0-0-0-0-0-0-0-0-0-0-2-2-2-2-2-2
2--2-2-2-2-2--2-2-2-2-x-x-x-x-x-x-0-0-0-0-0-0
0--0-0-0-0-3--3-3-3-3-x-x-x-x-x-x-0-0-0-0-0-0

SOLO TYPE OF THING
-------------------------------
8-8-8-6-8-9-2-2-6-4-2--11-8-9-6
-------------------------------
-------------------------------
-------------------------------
-------------------------------

THE LEADER SINGER STARTS SINGING - "ALL THE TIME, THAT I'VE..............." ITS NOT A VERSE

0--0-0-0-0-3--3-3-3-3-3-3-3-3-3-3-0-0-0-0-0-0
0--0-0-0-0-3--3-3-3-3-2-2-2-2-2-2-2-2-2-2-2-2
0--0-0-0-0-0--0-0-0-0-3-3-3-3-3-3-2-2-2-2-2-2
2--2-2-2-2-0--0-0-0-0-0-0-0-0-0-0-2-2-2-2-2-2
2--2-2-2-2-2--2-2-2-2-x-x-x-x-x-x-0-0-0-0-0-0
0--0-0-0-0-3--3-3-3-3-x-x-x-x-x-x-0-0-0-0-0-0

0--0-0-0-0-3--3-3-3-3-3-3-3-3-3-3-0-0-0-0-0-0
0--0-0-0-0-3--3-3-3-3-2-2-2-2-2-2-2-2-2-2-2-2
0--0-0-0-0-0--0-0-0-0-3-3-3-3-3-3-2-2-2-2-2-2
2--2-2-2-2-0--0-0-0-0-0-0-0-0-0-0-2-2-2-2-2-2
2--2-2-2-2-2--2-2-2-2-x-x-x-x-x-x-0-0-0-0-0-0
0--0-0-0-0-3--3-3-3-3-x-x-x-x-x-x-0-0-0-0-0-0

CHORUS
0--0-0-0-0-3--3-3-3-3-3-3-3-3-3-3-0-0-0-0-0-0
0--0-0-0-0-3--3-3-3-3-2-2-2-2-2-2-2-2-2-2-2-2
0--0-0-0-0-0--0-0-0-0-3-3-3-3-3-3-2-2-2-2-2-2
2--2-2-2-2-0--0-0-0-0-0-0-0-0-0-0-2-2-2-2-2-2
2--2-2-2-2-2--2-2-2-2-x-x-x-x-x-x-0-0-0-0-0-0
0--0-0-0-0-3--3-3-3-3-x-x-x-x-x-x-0-0-0-0-0-0

0--0-0-0-0-3--3-3-3-3-3-3-3-3-3-3-0-0-0-0-0-0            
0--0-0-0-0-3--3-3-3-3-2-2-2-2-2-2-2-2-2-2-2-2
0--0-0-0-0-0--0-0-0-0-3-3-3-3-3-3-2-2-2-2-2-2
2--2-2-2-2-0--0-0-0-0-0-0-0-0-0-0-2-2-2-2-2-2
2--2-2-2-2-2--2-2-2-2-x-x-x-x-x-x-0-0-0-0-0-0
0--0-0-0-0-3--3-3-3-3-x-x-x-x-x-x-0-0-0-0-0-0

I HOPE YOU LIKE IT!!
Comments