Staind - Outside Chords & Tabs

 

Outside Chords & Tabs

Staind Chords & Tabs

Version: 15 Type: Tab 0 ratings
1 star 2 stars 3 stars 4 stars 5 stars
comments

Outside Tab

Name: Staind
Song: Outside
Album: Break The Cycle

Acoustic tab 

P = pull
~ = let ring 
/ = slide

Intro: 
e:-------------------------------------------------------------------
B:-------------------------------------------------------------------
G:8-8-8-8-6-6-6-6----------------------------------------------------
D:8-8-8-8-6-6-6-6-4-4-4-4-6-6-6-6------------------------------------
A:6-6-6-6-4-4-4-4-4-4-4-4-6-6-6-6------------------------------------
E:----------------2-2-2-2-4-4-4-4------------------------------------

Vers:
e:-------------------------------------------------------------------
B:-------------------------------------------------------------------
G:9-9-9-9-7-7-7-7----------------------------------------------------
D:9-9-9-9-7-7-7-7-5-5-5-5-7-77-7------------------------------------
A:7-7-7-7-5-5-5-5-5-5-5-5-7-7-7-7------------------------------------
E:----------------3-3-3-3-5-5-5-5------------------------------------

[ Tab from: http://www.guitartabs.cc/tabs/s/staind/outside_tab_ver_15.html ]
Chorus
------
e:-------------------------------------------------------------------
B:-------------------------------------------------------------------
G:-9-9-9-9---------7-7-7-7-------------------------------------------
D:-9-9-9-9-5-5-5-5-7-7-7-7-7-7-7-7-----------------------------------
A:-7-7-7-7-5-5-5-5-5-5-5-5-7-7-7-7-----------------------------------
E:---------3-3-3-3---------5-5-5-5-----------------------------------

Solo: Play once
e:-------------------------------------------------------------------
B:-------------------------------------------------------------------
G:-----9---7-------2---------2---------------------------------------
D:--9p-9---7---5---2---------2---------------------------------------
A:-----7---5---5---0--3-3-3--0---------------------------------------
E:-------------3-----------------------------------------------------

Song order:
Intro..............................................................x2
Vers...............................................................x2
Chorus.............................................................x2
Intro..............................................................x2
Vers...............................................................x2
Chorus.............................................................x2
Solo...............................................................x2
Chorus.............................................................x2

End on C~
Comments