Staind - Outside Chords & Tabs

 

Outside Chords & Tabs

Staind Chords & Tabs

Version: 13 Type: Tab 0 ratings
1 star 2 stars 3 stars 4 stars 5 stars
comments

Outside Tab

e|-----2-----22----------22----------2-|
b|----3-----3--3--------3--3--------3--|
g|---2-----2----2------2----2------2---|
d|--0-----0------0----0------0----0----|
a|-0-----0--------0--0--------0--0-----|
e|0-----0----------00----------00------|



e|-----0-----00----------00----------0-|
b|----1-----1--1--------1--1--------1--|
g|---0-----0----0------0----0------0---|
d|--2-----2------2----2------2----2----|
a|-3-----3--------3--3--------3--3-----|
e|0-----0----------00----------00------|

[ Tab from: http://www.guitartabs.cc/tabs/s/staind/outside_tab_ver_13.html ]
e|-----3-----33----------33----------3-|
b|----0-----0--0--------0--0--------0--|
g|---0-----0----0------0----0------0---|
d|--0-----0------0----0------0----0----|
a|-0-----0--------0--0--------0--0-----|
e|3-----3----------33----------33------|



e|-----1-----11----------11----------1-|
b|----1-----1--1--------1--1--------1--|
g|---2-----2----2------2----2------2---|
d|--3-----3------3----3------3----3----|
a|-3-----3--------3--3--------3--3-----|
e|1-----1----------11----------11------|


just play them one after the other all through th whole song
Comments