Staind - Outside Chords & Tabs

 

Outside Chords & Tabs

Staind Chords & Tabs

Version: 12 Type: Tab 0 ratings
1 star 2 stars 3 stars 4 stars 5 stars
comments

Outside Tab

Title: Outside
Artist: Staind
Tuning: Standard
Tabbed By: Justin Cooper
	

I canít believe no one has figured this out yet it is this easy.  Usually everyone tabs it too sharp.  This version matches perfectly with the track.  (If you have come up with this Iím sorry, but I must not have seen it.)


[ Tab from: http://www.guitartabs.cc/tabs/s/staind/outside_tab_ver_12.html ]
  Verse                         
e-----------------------------/           
B-----------------------------/
G----8----6-------------------/
D----8----6----4----6---------/
A----6----4----4----6---------/
E--------------2----4---------/



Chorus
e-----------------------------/
B-----------------------------/
G----8----11----6-------------/
D----8----11----6----6--------/
A----6-----9----4----6--------/
E--------------------4--------/

Song Structure:

Verse x6
Chorus x2
Verse x6
Chorus x2
Verse x5
Chorus x2
Comments