Staind - Outside Chords & Tabs

 

Outside Chords & Tabs

Staind Chords & Tabs

Version: 10 Type: Tab 0 ratings
1 star 2 stars 3 stars 4 stars 5 stars
comments

Outside Tab

   
Ive Looked At The Other Tabs But Prefer My Version, This Is My First Tab So If Its 
Wrong Email Me, I Tabbed This By Watching The Video, Most Of The Time Aaron Tunes 
Down Half a Step Or Something Like That So This Might Be Wrong.
[ Tab from: http://www.guitartabs.cc/tabs/s/staind/outside_tab_ver_10.html ]
VERSE
 
  ---7----5----3----5---
  ---7----5----3----5---
  ---9----7----5----7---
  ---9----7----5----7---
  ---7----5----3----5---
  ---7----5----3----5---

CHORUS

  ---0----3----2----0
  ---0----3----3----2
  ---1----0----2----2
  ---2----0----0----2
  ---2----2----0----0
  ---0----3----0----0
     E    G    D    A


play all strings with d and a in the chorus
listen 2 the song 4 the strum pattern

any problems wiv this tab email at PORKMAD@hotmail.com

Rob Malley
Comments