Staind - Outside Chords & Tabs

 

Outside Chords & Tabs

Staind Chords & Tabs

Version: 1 Type: Tab 6 ratings
1 star 2 stars 3 stars 4 stars 5 stars
comments

Outside Tab

-6---6--66-6---4-|-----4--44-4--444|-2---2--22-2---6-|-----6--6666-6-66|------
-7---7--77-7---4-|-----4--44-4--444|-2---2--22-2---4-|-----4--4444-4-44|------
-8---8--88-8---6-|-----6--66-6--666|-3---3--33-3---4-|-----4--4444-4-44|------
-8---8--88-8---6-|-----6--66-6--666|-4---4--44-4---4-|-----4--4444-4-44|------
-6---6--66-6---4-|-----4--44-4--444|-4---4--44-4---6-|-----6--6666-6-66|------
-----------------|-----------------|-2---2--22-2---4-|-----4--4444-4-44|------
 Intro:                     Same accords continue and second guitar comes in: 

-6---6---7-6-----|---------6-------|---------------6-|-----------------|------
---------------9-|-----9-----9---9-|---7---9---------|---7-----7-------|------
---8---8-----8---|---8---8-----8---|-6---6-----------|-----------------|------
-----------------|-----------------|-----------------|-----8h9---------|------
-----------------|-----------------|-----------------|-----------------|------
-----------------|-----------------|-----------------|-----------------|------
 Second guitar:                                                               

-6---6---7-6-----|---------6-------|---------------6-|-----------------|-6----
---------------9-|-----9-----9---9-|---7---9---7-----|---7-----7---9-7-|------
---8---8-----8---|---8---8-----8---|-6---6-------6---|-----------------|---8--
-----------------|-----------------|-----------------|-----8h9---------|------
-----------------|-----------------|-----------------|-----------------|------
-----------------|-----------------|-----------------|-----------------|------
 Verse 1:(Still same accords!)                                                

-6---7-6-----|---------6-------|---------------6-|-----------------|-6---6----
-----------9-|-----9-----9---9-|---7---9---7-----|---7-----7---9-7-|----------
---8-----8---|---8---8-----8---|-6---6-------6---|-----------------|---8---8--
-------------|-----------------|-----------------|-----8h9---------|----------
-------------|-----------------|-----------------|-----------------|----------
-------------|-----------------|-----------------|-----------------|----------
                                                                              
[ Tab from: http://www.guitartabs.cc/tabs/s/staind/outside_tab.html ]
-7-6-----|---------6-------|---------------6-|-----------------|-6---6---7-6--
-------9-|-----9-----9---9-|---7---9---7-----|---7-----7---9-7-|--------------
-----8---|---8---8-----8---|-6---6-------6---|-----------------|---8---8------
---------|-----------------|-----------------|-----8h9---------|--------------
---------|-----------------|-----------------|-----------------|--------------
---------|-----------------|-----------------|-----------------|--------------
                                                                              

-----|---------6-------|---------------6-|-----------------|------------------
---9-|-----9-----9---9-|---7---9---7-----|---7-----7-------|------------------
-8---|---8---8-----8---|-6---6-------6---|-----------------|------------------
-----|-----------------|-----------------|-----8h9---------|------------------
-----|-----------------|-----------------|-----------------|------------------
-----|-----------------|-----------------|-----------------|------------------
                                                                              
Chorus:
-----------------|-----------------|-----------------|-----------------|------
-----------------|-----------------|-----------------|-----------------|------
-8---8--88-8---8-|-----------------|-6---6--66-6---6-|-----------------|-8----
-8---8--88-8---8-|-4---4--44-4---4-|-6---6--66-6---6-|-6---6--66-6---6-|-8----
-6---6--66-6---6-|-4---4--44-4---4-|-4---4--44-4---4-|-6---6--66-6---6-|-6----
-----------------|-2---2--22-2---2-|-----------------|-4---4--44-4---4-|------
                                                                     

-------------|-----------------|-----------------|-----------------|----------
-------------|-----------------|-----------------|-----------------|----------
-8--88-8---8-|-----------------|-6---6--66-6---6-|-----------------|-8---8--8-
-8--88-8---8-|-4---4--44-4---4-|-6---6--66-6---6-|-6---6--66-6---6-|-8---8--8-
-6--66-6---6-|-4---4--44-4---4-|-4---4--44-4---4-|-6---6--66-6---6-|-6---6--6-
-------------|-2---2--22-2---2-|-----------------|-4---4--44-4---4-|----------
                                                                              

---------|-----------------|-----------------|-----------------|--------------
---------|-----------------|-----------------|-----------------|--------------
-8-8---6-|-----6--66-6--666|-----------------|-----------------|--------------
-8-8---6-|-----6--66-6--666|-4---4--44-4---6-|-----------------|--------------
-6-6---4-|-----4--44-4--444|-4---4--44-4---6-|-----------------|--------------
---------|-----------------|-2---2--22-2---4-|-----------------|--------------
                                                                              

Verse 2: (Same as verse 1) 

Solo:                            
-----------------|-----------------|-----------------|-----------------|------
-----------------|-----------------|-----------------|-----------------|------
-----------------|-----------------|-----------------|-----------------|------
-5---5---5-3-5-7-|---------3-------|---------3-------|-----------------|------
-----------------|---4-------6-4---|-6---4-----6-4-6-|-----------------|------
-----------------|-----------------|-----------------|-----------------|------
Comments