Staind - Outside Live Chords & Tabs

 

Outside Live Chords & Tabs

Staind Chords & Tabs

Version: 1 Type: Tab 0 ratings
1 star 2 stars 3 stars 4 stars 5 stars
comments

Outside Live Tab

"Outside"- Staind (live version)

verse:
e: ------------------------------------------------------ 
b: ------------------------------------------------------
g: --8-8-8-8---6-6-6-6-----------------------------  x ??
d: --8-8-8-8---6-6-6-6---4-4-4-4----6-6-6-6--
a: --6-6-6-6---4-4-4-4---4-4-4-4----6-6-6-6--
e: ----------------------------2-2-2-2----4-4-4-4---

[ Tab from: http://www.guitartabs.cc/tabs/s/staind/outside_live_tab.html ]
chorus:
(i haven't figured out the chords on the chorus, so i just write the other stuff... ok??)

e:--------------------------------------------------------
b:--------------------------------------------------------
g:--8-8-8-8----------------6-6-6-6-----------------  x2 
d:--8-8-8-8---4-4-4-4---6-6-6-6---6-6-6-6----
a:--6-6-6-6---4-4-4-4---4-4-4-4---6-6-6-6----
e:--------------2-2-2-2-----------------4-4-4-4-----

well... that's it!! the rythm comes when you play... but this is the.... euhm... it's just the tab! =)
Good luck! (hope that this is right)
Comments