Staind - Outside Chords & Tabs

 

Outside Chords & Tabs

Staind Chords & Tabs

Version: 3 Type: Chords 0 ratings
1 star 2 stars 3 stars 4 stars 5 stars
comments

Outside Chords

   
OUTSIDE by Aaron Lewis(Staind)  Fred Durst(Limp Bizkit)


Verses

      Eb      Db      F#       G# minor   ***G# major***
E |--------------------2----------4-------------4---------
B |--------------------2----------4-------------4---------
G |----8-------6-------3----------4-------------5---------
D |----8-------6-------4----------6-------------6---------
A |----6-------4-------4----------6-------------6---------
E |--------------------2----------4-------------4---------
[ Tab from: http://www.guitartabs.cc/tabs/s/staind/outside_crd_ver_3.html ]
***Every version of this song i've seen so far ... nobody wrote down the
   chord Fred changes the chord progression a little: Eb,Db,F#,G#m,G#,G#m
   it can be heard durning the intro very well.  You'll just have to
   listen to the song to figure out when he does it ... I hope this helps
   Zack (zde99@admiral.umsl.edu)
Chorus

      Eb       F#5      Db      G# major
E |----------------------4----------4-----
B |----------------------4----------4-----
G |----8--------11-------4----------5-----
D |----8--------11-------6----------6-----
A |----6--------9--------6----------6-----
E |----------------------4----------4-----


Intro
Eb    Db    F# G#m G# G#m  
Comments