Staind - Outside Chords & Tabs

 

Outside Chords & Tabs

Staind Chords & Tabs

Version: 5 Type: Bass Tab 0 ratings
1 star 2 stars 3 stars 4 stars 5 stars
comments

Outside Bass Tab

-----------------------------------------------------------------------------
			     Staind - Outside
-----------------------------------------------------------------------------
Tabbed by:MackdaddyMike24
Email:travestyweb@yahoo.com

Tuning: one-half step

Verse
Gb-------------------------------------------|
Db-------------------------------------------|
Ab--7--7-7-7---5--5-5-5----------------------| (x4)
Eb-----------------------3--3-3-3---5--5-5-5-|

Chorus
Gb-------------------------------------------|
Db-------------------------------------------|
Ab-----------------------5--5-5-5------------| (x2)
Eb--0--0-0-0---3--3-3-3-------------5--5-5-5-|
[ Tab from: http://www.guitartabs.cc/tabs/s/staind/outside_btab_ver_5.html ]
After Chorus
Gb-------------------------------------------|
Db-------------------------------------------|
Ab-------------5--5-5-5----------------------| (x1)
Eb--0--0-0-0-------------3--3-3-3---5--5-5-5-|

Verse

Chorus

After Chorus

Break
Gb-------------------------------------------|
Db-------------------------------------------|
Ab-------------5--5-5-5----------------------| (x3)
Eb--0--0-0-0-------------3--3-3-3---5--5-5-5-|

Gb-------------------------------------------|
Db-------------------------------------------|
Ab--7----------5-----------------------------| (x1)
Eb-----------------------3----------5--------|

Really Good Song I enjoyed tabbing it! Have fun Vote High!
Comments