Staind - Outside Chords & Tabs

 

Outside Chords & Tabs

Staind Chords & Tabs

Version: 3 Type: Bass Tab 0 ratings
1 star 2 stars 3 stars 4 stars 5 stars
comments

Outside Bass Tab

Staind
Outside
[ Tab from: http://www.guitartabs.cc/tabs/s/staind/outside_btab_ver_3.html ]
Verse
G---------------------------------------------------------------------------------------
D---------------------------------------------------------------------------------------
A-7-7---7-777 5-5-5-555-----------------------------------------------------------------
E-------------------------------------------------------3-3-3-333-5-5-5-555-------------
Chorus
G---------------------------------------------------------------------------------------
D---------------------------------------------------------------------------------------
A------------------------------------------------------5-5-5-5-5-5-5555-0-0-0-0-0-0-0000
E-0-0---0-000-3-3-3-3-333---------------------------------------------------------------
Comments