Staind - Outside Chords & Tabs

 

Outside Chords & Tabs

Staind Chords & Tabs

Version: 1 Type: Bass Tab 0 ratings
1 star 2 stars 3 stars 4 stars 5 stars
comments

Outside Bass Tab

“Outside”
By Staind

Verses and Intro
G------------------------------------------------
D------------------------------------------------
A----6---4---------------------------------------
E---------------------2----4---------------------


Chorus

G----------------------------
D----------------------------
A----6-----9-------4--------
E-------------------------4--
[ Tab from: http://www.guitartabs.cc/tabs/s/staind/outside_btab.html ]
Alright this is correct staind is the best all the 
other bass tabs are wrong and retarded e-mail me if 
you think this is wrong it is not so there should be 
no reason to e-mail the timing and the number of notes 
is not correct but it should be easy to figure out if 
anyone need help making a tab for any staind song tell 
me and e-mail and tell what song and what you have tabed 
and e-mail your tab I can play all staind songs.
craig4868@msn.com
Comments