Staind - Open Your Eyes Chords & Tabs

 

Open Your Eyes Chords & Tabs

Staind Chords & Tabs

Version: 7 Type: Tab 0 ratings
1 star 2 stars 3 stars 4 stars 5 stars
comments

Open Your Eyes Tab

   
Open Your Eyes
Staind
Break The Cycle
Tuning low to high: Db, Ab, Db, Gb, Bb, eb
This song has an awsome message and I'm tired of seeing it tabbed wrong.
Lets keep it simple people. Enjoy this song being played the correct way.
  
 Intro: 2x        Intro pt.2: 2x End 2 on 2nd time.
eb|--0--0--|--0--0--|-------------------|-------------------------|-------------------|
Bb|--0--0--|--0--0--|---------------<5>-|---------------<5>---<7>-|---------------<5>-|
Gb|--7--6--|--7--6--|-------------------|------------------<5>----|-------------------|
Db|--9--9--|--7--7--|--7h9-9-9--7-9-----|--7h9-9-9--7-9-----------|--7h9-9-9--7-9-----|
Ab|--9--9--|--7--7--|--7h9-9-9--7-9-----|--7h9-9-9--7-9-----------|--7h9-9-9--7-9-----|
Db|--------|--------|--7h9-9-9--7-9-----|--7h9-9-9--7-9-----------|--7h9-9-9--7-9-----|
 
 End: 1                 End: 2
eb|--------------------|-------------------|
Bb|--------------------|-------------------|
Gb|--------------------|-------------------|
Db|--7h9-9-9--7-9-9999-|--7h9-9-9--7-9-----|
Ab|--7h9-9-9--7-9-9999-|--7h9-9-9--7-9-----|
Db|--7h9-9-9--7-9-9999-|--7h9-9-9--7-9-/9--|
 
  Verse: 8x
eb|--0--0--|--0--0--|
Bb|--0--0--|--0--0--|
Gb|--7--6--|--7--6--|
Db|--9--9--|--7--7--|
Ab|--9--9--|--7--7--|
Db|--------|--------|
 
  Chorus: 4x
eb|------------|---------------|
Bb|------------|---------------|
Gb|------------|-----------5-5-|
Db|--5--5--7-7-|-2--2-xxxx-5-5-|
Ab|--5--5--7-7-|-2--2-xxxx-3-3-|
Db|--5--5--7-7-|-2--2-xxxx-3-3-|
  
  Intro: pt.2 w/ end 2
  Verse: 8x
  Chorus: 4x

  Interlude: 6x
eb|---------|---------|
Bb|---------|-------3-|
Gb|-----0---|-----0---|
Db|--0~---4-|--5~-----|
Ab|--0~-----|--5~-----|
Db|--0~-----|--5~-----|

Verse: 4x
Chorus: 8x
Intro: pt.1 2x

Thats it.
[ Tab from: http://www.guitartabs.cc/tabs/s/staind/open_your_eyes_tab_ver_7.html ]
Comments