Staind - Open Your Eyes Chords & Tabs

 

Open Your Eyes Chords & Tabs

Staind Chords & Tabs

Version: 5 Type: Tab 0 ratings
1 star 2 stars 3 stars 4 stars 5 stars
comments

Open Your Eyes Tab

   
Tabbed by:THE SANDMAN
Email:ryan5@iamwasted.com

Tuning:Ab, Db, Ab, Db, Gb, Bb, 
mike uses a ibanez baritone guitar



|---------------------------------------------------------------------------|
|---------------------------------------------------------------------------|
|-12-12--11-11-11---------12-12--11---11-11---------------------------------|
|--9--9---9--9--9--(0)-----0--0---0----0--0---0-----------------------------|
|--9--9---9--9--9---------14-14--14---14-14---------------------------------|
|---------------------------------------------------------------------------|
[ Tab from: http://www.guitartabs.cc/tabs/s/staind/open_your_eyes_tab_ver_5.html ]
|---------------------------------------------------------------------------|
|-----------------------------4---------------------------4--5--------------|
|------------------------------------------(0)------------------4-----------|
|-------------(0)---------------------------0-------------------------------|
|-4------4-4---0--4--4-4-4-4------4^---4-4--0---4-4--4-4--------------------|
|-0-^-2--2-2---0--2--0-0-2-2------0--2-2-2------2-0--2-2--------------------|

|---------------------------------------------------------------------------|
|---------------------------------------------------------------------------|
|---------(0)--------------------------(0)-----------9\---------------------|
|----------0----------------------------0-----------------------------------|
|4-----4-4-0--4-4-4-4-5-\4-4--4-----4-4-0-4--4-4-4---9\---------------------|
|0-^-2-2-2----2-0-2-2-3-\2-2--0^-2--2-2---2--0-2-2--------------------------|


|----------------------------------|
|----------------------------------|
|-5-5--7-7--2--2-2-2--3-3-3-3--3-3-|
|-5-5--7-7--2--2-2-2--3-3-3-3--3-3-|
|-5-5--7-7--2--2-2-2--3-3-3-3--3-3-|
|----------------------------------|


|----------------------------------------------------------|
|----------------------------------------------------------|
|---0-------------0-------------0--------------0-----------|
|-----0--10--9------0--10--9------0---10--9------0---10--9-|
|-0------------0-------------------------------------------|
|----------------------------10-------------10-------------|



this is right
Comments