Staind - Open Your Eyes Chords & Tabs

 

Open Your Eyes Chords & Tabs

Staind Chords & Tabs

Version: 3 Type: Tab 0 ratings
1 star 2 stars 3 stars 4 stars 5 stars
comments

Open Your Eyes Tab

   
                             Staind - Open Your Eyes

Tuned down to (D A D G B E)

On the G, A chords, and the Verse after Second Chorus, use a soft delayed reverb.  
On everything else use a hard distortion with reverb and 
H = Harmonic
S = Slide
R = Ring


Intro:
 Chords:  (Play 3 Times)          Power Chords:(Play 2 Times)
  
   G   A  A  A  A          G   A 
E|-3---------------------|-3---------------------|-------------------|
B|-----2--2--2--2--------|-----2R----------------|-------------------|
G|*----2--2--2--2-------*|-----2R----------------|*------------------|
D|*2---2--2--2--2-------*|-2---2R----------------|*0-0-1-3-2-1-0-0---|
A|-3---------------------|-3---------------------|-0-0-1-3-2-1-0-0---|
D|-----------------------|-----------------------|-0-0-1-3-2-1-0-0---|

E|-----------------------|-----------------------|-------------------|
B|-----------------------|-----------------------|-------------------|
G|-----------------------|-----------------------|-------------------|
D|-----------------------|-0-0-1-3-2-1-0-0-------|-------------------|
A|-----------------------|-0-0-1-3-2-1-0-0-------|-------------------|
D|-5H--------------------|-0-0-1-3-2-1-0-0-------|-5H--7H--9H--------|
[ Tab from: http://www.guitartabs.cc/tabs/s/staind/open_your_eyes_tab_ver_3.html ]
E|-----------------------|-----------------------|-------------------|
B|-----------------------|-----------------------|-------------------|
G|-----------------------|-----------------------|------------------*|
D|-0-0-1-3-2-1-0-0-------|-----------------------|-0-0-1-3-2-1-1S3--*|
A|-0-0-1-3-2-1-0-0-------|-----------------------|-0-0-1-3-2-1-1S3---|
D|-0-0-1-3-2-1-0-0-------|-5H--------------------|-0-0-1-3-2-1-1S3---|


All verses but Chorus:  (Play 15 Times)

E|-3---------------------|
B|------2----------------|
G|*-----2---------------*|
D|*2----2---------------*|
A|-3---------------------|
D|-----------------------|


Chorus:  (Play 4 Times)

E|-----------------------|
B|-----------------------|
G|*---------------------*|
D|*1-1-3-1-0-1S3--------*|
A|-1-1-3-1-0-1S3---------|
D|-1-1-3-1-0-1S3---------|


Verse after Second Chorus:  (Play 13 Times)

E|-----------------------|
B|-----------------------|
G|*---------------------*|
D|*-0-5-3-7-------------*|
A|-----------------------|
D|-----------------------|


End:  (Play 2 Times)

E|-----------------------|-----------------------|-------------------|
B|-----------------------|-----------------------|-------------------|
G|*----------------------|-----------------------|-------------------|
D|*0-0-1-3-2-1-0-0-------|-----------------------|-0-0-1-3-2-1-0-0---|
A|-0-0-1-3-2-1-0-0-------|-----------------------|-0-0-1-3-2-1-0-0---|
D|-0-0-1-3-2-1-0-0-------|-5H--------------------|-0-0-1-3-2-1-0-0---|

E|-----------------------|
B|-----------------------|
G|----------------------*|
D|----------------------*|
A|-----------------------|
D|-5H--7H--9H------------|


Intro:  0:00 - 0:27
All verses but Chorus:  0:28 - 1:02
Chorus:  1:03 - 1:20
Intro (Power Chords):  1:21 - 1:28
All verses but Chorus:  1:29 - 2:04
Chorus:  2:05 - 2:22
Verse after Second Chorus:  2:23 - 2:48
All Verses but Chorus: 2:49 - 3:05
Chorus:  3:06 - 3:41
End:  3:42 - 3:51

If you have any suggestions, comments, 
or if something is wrong in the tabs,
email me at Staind1110@aol.com.
Comments