Staind - Mudshovel Chords & Tabs

 

Mudshovel Chords & Tabs

Staind Chords & Tabs

Version: 9 Type: Tab 0 ratings
1 star 2 stars 3 stars 4 stars 5 stars
comments

Mudshovel Tab

   
----------------------------------------------------------------------
			     Staind - Mudshovel
----------------------------------------------------------------------
Tuning:E string tuned down to C#,and the rest of the strings tuned down
a half step from standard tuning.

Intro(this is the bass but…..of course not the right strumming but u get the idea)
Eb|-------------------------------------------------------------------|
Bb|-------------------------------------------------------------------|
Gb|-------------------------------------------------------------------|
Db|-------------------------------------------------------------------|
Ab|--0-0-0-0-0-0-0-0-0-0-0--3-3-3-3-3-3-3-3-3-3-----------------------|
Db|-----------------------------------------------0-0-0-0-0-0-0-0-0-0-|
Guitar 1
Eb|-------------------------------------------------------------------|
Bb|-------------------------------------------------------------------|
Gb|-------------------------------------------------------------------|
Db|--7-7-7-7-7-7--10-10-10-10-10--0-0-0-0-0-0-------------------------|
Ab|--7-7-7-7-7-7--10-10-10-10-10--0-0-0-0-0-0-------------------------|
Db|--7-7-7-7-7-7--10-10-10-10-10--0-0-0-0-0-0-------------------------|
[ Tab from: http://www.guitartabs.cc/tabs/s/staind/mudshovel_tab_ver_9.html ]
Guitar 2(use all harmonics,its not easy to tab, so basically start at the fifth
fret and just slide your hand down and up from the 5th to the 2nd and the 2nd to
5th, all on the C# string.)
Eb|-------------------------------------------------------------------|
Bb|-------------------------------------------------------------------|
Gb|-------------------------------------------------------------------|
Db|-------------------------------------------------------------------|
Ab|-------------------------------------------------------------------|
Db|--5*-5*-4*-4*-3*-3*-2*-2*-2*-2*-3*-3*-4*---------------------------|

Verse(the bass is playing,the guitar just does this off and on…….)
Eb|-------------------------------------------------------------------|
Bb|-------------------------------------------------------------------|
Gb|-------------------------------------------------------------------|
Db|-------------------------------------------------------------------|
Ab|--5*---------------------------------------------------------------|
Db|-------------------------------------------------------------------|

Chorus
Eb|-------------------------------------------------------------------|
Bb|-------------------------------------------------------------------|
Gb|-----------------5-------------------------------------------------|
Db|--7-7-7-7-7-7-7--5--0-0-0-0-0-0-0--5-------------------------------|
Ab|--7-7-7-7-7-7-7--3--0-0-0-0-0-0-0--3-------------------------------|
Db|--7-7-7-7-7-7-7-----0-0-0-0-0-0-0--3-------------------------------|

Bridge
Eb|-------------------------------------------------------------------|
Bb|-------------------------------------------------------------------|
Gb|-------------------------------------------------------------------|
Db|--5-0-6-0-1-0------------------------------------------------------|
Ab|--5-0-6-0-1-0----4x------------------------------------------------|
Db|--5-0-6-0-1-0------------------------------------------------------|

| /  slide up
| \  slide down
| h  hammer-on
| p  pull-off
| ~  vibrato
| *  harmonic
| x  Mute note and times
===============================================================================
Comments