Staind - Mudshovel Chords & Tabs

 

Mudshovel Chords & Tabs

Staind Chords & Tabs

Version: 7 Type: Tab 0 ratings
1 star 2 stars 3 stars 4 stars 5 stars
comments

Mudshovel Tab

Song: Mudshovel
   By: Staind 
   CD: Dysfunction
   Tabbed By Erich (StahlRagen@aol.com) 

   Use Dropped D tuning (DADGBE)

   INTRO / VERSE
   E----------------------l
   B----------------------l 
   G----------------------I 
   D----------------------I
   A--0x10--3x10----------I
   D-----------------0x20-I

   *******************
   *Use Harmonics * 
   *******************
   E-----------------------------------------------------------I
   B-----------------------------------------------------------I
   G-----------------------------------------------------------I 
   D---7//////////6////////////5/////////////6///////////7-----l
   A---7//////////6////////////5/////////////6///////////7-----I 
   D---5//////////4////////////3/////////////4///////////5-----I 

   CHORUS
   E------------------------------------------------------------------I
   B------------------------------------------------------------------I
   G--2-2--2-2--2-2--2-2--2--2--5-------------------------------------I 
   D--2-2--2-2--2-2--2-2--2--2--3--0-0-0-0-0-0-0-0-0-0---5------------I
   A--0-0--0-0--0-0--0-0--0--0--3--0-0-0-0-0-0-0-0-0-0---3------------I
   D------------------------------------------0-0-0-0-0-0-0-0-0-0---3-I 

[ Tab from: http://www.guitartabs.cc/tabs/s/staind/mudshovel_tab_ver_7.html ]
   BRIDGE/OUTRO
   E-------------------------------I
   B-------------------------------I
   G-------------------------------I 
   D---3-0-6-0-1-0-----------------I
   A---3-0-6-0-1-0-----------------I
   D---3-0-6-0-1-0-----------------I

   Song Structure And Lyrics

   intro x3
   You take away
   I feel the same 

   verse w/harmonics x2

   Verse x2
   You take away 
   I feel the same
   Verse w/harmonics x2
   All these promices you made to me in vain
   I lost myself inside your tainted smile again

   cause...

   Chorus x4 
   You can feel my anger
   You can feel my pain
   You can feel my torment 
   Driving me insane
   I can't fight these feelings
   They will bring you pain
   You can't take away 
   Make me whole again

   Verse w/harmonics x1

   Verse x2
   I feel the betrayed 
   stuck in your ways
   Verse w/harmonics x2
   And you rip me apart with the brutal things you say
   I cant deal with this sh*t anymore i just look away

   cause...

   CHORUS

   Bridge x8
   Mudshovel 

   Verse x1
   Verse x4
   You take away 
   I feel the same
   All these promices
   You promiced only pain
   If you take away
   And leave me with nothing again

   Cause...

   CHORUS

   Chorus x4
   You will feel my anger
   You will feel my pain
   You will feel my torment 
   Driving me insane
   I can't fight these feelings
   They will bring you pain
   You can't take away 
   Make me whole again

   Outro x8
   Mudshovel
Comments