Staind - Mudshovel Chords & Tabs

 

Mudshovel Chords & Tabs

Staind Chords & Tabs

Version: 6 Type: Tab 0 ratings
1 star 2 stars 3 stars 4 stars 5 stars
comments

Mudshovel Tab

   
##################################################################################
# This file is the author's own work and represents their interpretation of the  #
# song. You may only use this file for private study, scholarship, or research.  #
##################################################################################

Title:Mudshovel
Artist:Staind
Album:Dysfunction
Tabbed by:Tristan Collins
Email:all_my_fault_69@hotmail.com
I know alot of people have tabbed this but the main thing they fucked up with is the tuning and if the tunings wrong so is the song!!!!!!!!!!!

TUNING:Ab Db Ab Db Gb Bb
Bpm=108

Riff 1
Guitars 1&2 distorted
Bb|------------------------------|-------------------------------|---------------------------|-----------------------------|
Gb|------------------------------|-------------------------------|---------------------------|-----------------------------|
Db|.-----------------------------|-------------------------------|---------------------------|----------------------------.|
Ab|.-----------------------------|-------------------------------|---------------------------|----------------------------.|
Db|--4*harm\\\\\\\1.3*harm///////|4*harm*\\\\\\\\1.3*harm////////|4*harm\\\\\\\1.3*harm//////|4*harm\\\\\\\1.3*harm///////-|
Ab|------------------------------|-------------------------------|---------------------------|-----------------------------|
*random harmonics are sounded by sliding between the 2 frets while picking in a 16th note rhythm and the 1.3 harmonic is located between frets 1 and 2 just keep trying til you find it

Riff 2 let ring and lower guitars volume
Guitar 1
Bb----------------------------|------------------------------------|---------------------------|----------------------------|
Gb----------------------------|------------------------------------|---------------------------|----------------------------|
Db----------------------------|------------------------------------|---------------------------|----------------------------|
Ab----------------------------|------------------------------------|---------------------------|----------------------------|
Db-/3harm---------------------|------------------------------------|---------------------------|----------------------------|
Ab----------------------------|------------------------------------|---------------------------|----------------------------|
Guitar 2
Bb----------------------------|------------------------------------|---------------------------|----------------------------|
Gb----------------------------|------------------------------------|---------------------------|----------------------------|
Db----------------------------|------------------------------------|---------------------------|----------------------------|
Ab----------------------------|------------------------------------|-3harm---------------------|----------------------------|
Db-/3harm---------------------|--------------------------4harm-----|---------------------------|----------------------------|
Ab----------------------------|--2harm-----------------------------|---------------------------|----------------------------|

Riff 3
Guitar 1:Tacet
Guitar 2
Bb----------------------------|------------------------------------|---------------------------|----------------------------|
Gb----------------------------|------------------------------------|---------------------------|----------------------------|
Db----------------------------|------------------------------------|---------------------------|----------------------------|
Ab----------------------------|------------------------------------|-3harm---------------------|-VOLUME-SWELL---------------|
Db-/3harm---------------------|--------------------------4harm-----|---------------------------|----------------------------|
Ab----------------------------|--2harm-----------------------------|---------------------------|----------------------------|
[ Tab from: http://www.guitartabs.cc/tabs/s/staind/mudshovel_tab_ver_6.html ]
Riff 4
Guitars 1&2
Bb----------------------------|------------------------------------|---------------------------|
Gb----------------------------|------------------------------------|---------------------------|
Db--7-7--7-7--7-7----7-7--7--7|-10---------------------------------|---------------------------|
Ab--7-7--7-7--7-7----7-7--7--7|-10---------------------------------|---------------------------|
Db--7-7--7-7--7-7----7-7--7--7|-10---------------------------------|-7-7--7-7--7-7----7-7--7--7|
Ab----------------------------|---------------------------------0--|-5-5--5-5--5-5----5-5--5--5|
Riff 5
Guitars 1&2
Bb---------------------------------------------------------|
Gb---------------------------------------------------------|
Db---------------------------------------------------------|
Ab---------------------------------------------------------|
Db--5--------------let-ring--------------------------------|
Ab--3---------------------------------------------------0--|
Riff 6
Guitars 1&2
Bb----------------------------|------------------------------------|---------------------------|---------------------------|
Gb----------------------------|------------------------------------|---------------------------|---------------------------|
Db--7-7--7-7--7-7----7-7--7--7|-10---------------------------------|---------------------------|---------------------------|
Ab--7-7--7-7--7-7----7-7--7--7|-10---------------------------------|---------------------------|---------------------------|
Db--7-7--7-7--7-7----7-7--7--7|-10---------------------------------|-7-7--7-7--7-7----7-7--7--7|-5-------------------------|
Ab----------------------------|---------------------------------0--|-5-5--5-5--5-5----5-5--5--5|-3-------------------------|

Riff 7
Bb---------------------------------------|
Gb---------------------------------------|
Db--7----0----6--------------------------|
Ab--5----0----6--------------------------|
Db--5----0----6--------------------------|
Ab----------------------0----3--0--------|

Riff 8
Bb---------------------------------------|
Gb---------------------------------------|
Db--7----0----6--------------------------|
Ab--5----0----6--------------------------|
Db--5----0----6--------------------------|
Ab----------------------0----3--1----0---|

Song Order
Riff 1
Riff 2
Riff 3
Riff 1x2
Riff 4
Riff 5
Riff 6
Riff 1
Riff 5
Riff 7x7
Riff 8
Interlude no guitar
Riff 2x3 guitar 2 only
Riff 3
Riff 4
Riff 5
Riff 4
Riff 8


**************

Song: Mudshovel

**************


By: Staind


CD
Dysfunction
Tabbed By Erich (StahlRagen@aol.com) 

Use Dropped D tuning (DADGBE)

   INTRO / VERSE
   E--------------------------l
   B--------------------------l
   G--------------------------I
   D--------------------------I
   A--0x10--3x10----------I
   D-----------------0x20--I
   *******************
   *Use Harmonics *
   *******************
   E---------------------------------------------------------------I
   B---------------------------------------------------------------I
   G---------------------------------------------------------------I
   D---7//////////6////////////5/////////////6///////////7-----l
   A---7//////////6////////////5/////////////6///////////7-----I
   D---5//////////4////////////3/////////////4///////////5-----I
   CHORUS
   E-------------------------------------------------------------------------I
   B-------------------------------------------------------------------------I
   G--2-2--2-2--2-2--2-2--2--2--5-----------------------------------------I
   D--2-2--2-2--2-2--2-2--2--2--3--0-0-0-0-0-0-0-0-0-0---5-----I
   A--0-0--0-0--0-0--0-0--0--0--3--0-0-0-0-0-0-0-0-0-0---3---I
   D------------------------------------------0-0-0-0-0-0-0-0-0-0---3---I




   BRIDGE/OUTRO
   E------------------------------------I
   B------------------------------------I
   G------------------------------------I
   D---3-0-6-0-1-0-----------------I
   A---3-0-6-0-1-0-----------------I
   D---3-0-6-0-1-0-----------------I
Comments