Staind - Mudshovel Chords & Tabs

 

Mudshovel Chords & Tabs

Staind Chords & Tabs

Version: 5 Type: Tab 0 ratings
1 star 2 stars 3 stars 4 stars 5 stars
comments

Mudshovel Tab

   
Song: Mudshovel	
Artist: Staind
Album: Dysfunction
Length: 4:41
Tabbed by: BK
bkslapshot@aol.com

I'm 99% sure this tab is correct.
Tune low E down to a D then tune all down1/2 steps 
( Db-Ab-Db-Gb-Bb-eb-).
If you have any comments,questions,or problems with
this tab e-mail me at bkslapshot@aol.com. Have fun!

Key:
* = harmonics
/ =  slide up
\ = slide down
( ) = hold note

  
intro (bass arranged for guitar) just for fun  
eb:----------------------------------------------------
Bb:----------------------------------------------------
Gb:----------------------------------------------------
Db:----------------------------------------------------
Ab:0-0-0-0-0-0-0000000-3-3-3-3-3-3-3333333-------------
Db:----------------------------------------0-0-0-0-0-0-0000000-0-0-0-0-0-0-0000000


verse   
eb:-------------------------------------------------
Bb:-------------------------------------------------
Gb:-------------------------------------------------
Db:-------------------------------------------------
Ab:-------------------------------------------------
Db:5*///4*///3*\\\4*\\\5*---------------------------

[ Tab from: http://www.guitartabs.cc/tabs/s/staind/mudshovel_tab_ver_5.html ]
verse   version 2
eb:-------------------------------------------------
Bb:-------------------------------------------------
Gb:-------------------------------------------------
Db:-------------------------------------------------
Ab:-------------------------------------------------
Db:5*///4*///3*\\\4*\\\5*---(*between fret 3 & 4)< only on last time


chorus
eb:-------------------------------------------------
Bb:-------------------------------------------------
Gb:-------------------------------------------------
Db:2--2--2--2-2-2-(5)---5-5--1--1--1--1-1-1-(0)-----
Ab:0--0--0--0-0-0-(3)---3-3--1--1--1--1-1-1-(0)-----
Db:--------------------------1--1--1--1-1-1-(0)-----


bridge
eb:-------------------------------------------------
Bb:-------------------------------------------------
Gb:-------------------------------------------------
Db:6-0-7-0-1-0--------------------------------------
Ab:6-0-7-0-1-0--------------------------------------
Db:6-0-7-0-1-0--------------------------------------


outro
eb:-----
Bb:-----
Gb:-----
Db:0----
Ab:0----
Db:0----

Order:
verse ver.2    8x   (0:27-0:47)
verse          8x   (1:02-1:19)
chorus         2x   (1:20-1:37)
verse ver.2    4x   (1:38-1:50)
verse          8x   (2:05-2:22)
chorus         2x   (2:23-2:40)
bridge         8x   (2:41-2:58)
chorus         4x   (3:43-4:18)
bridge         8x   (4:19-4:36)
outro          1x   (4:37)

            and that's it.    enjoy!!!!!
Comments