Staind - Mudshovel Chords & Tabs

 

Mudshovel Chords & Tabs

Staind Chords & Tabs

Version: 3 Type: Tab 0 ratings
1 star 2 stars 3 stars 4 stars 5 stars
comments

Mudshovel Tab

Tunning: Tune down a half step then drop d so it a drop d flat tunning.   
Song: MUDSHOVEL
Artist: STAIND
Tabbed by: Ellie burack
  Mike uses a baritone but most of us dont have one so i tabbed this for a 
normal AXE. this is a great song, because staind rules the world,and get in it or get out.
   this tab is not 100% right because the tunning is diffrent.
{Bass intro for guitar}
 eb------------------------------------------------------------------------|
 Bb------------------------------------------------------------------------|
 gb------------------------------------------------------------------------|
 db------------------------------------------------------------------------|
 ab--00000000000--------333333333------------------------------------------|
 db-------------------------------------0000000000-------------------------|

[ Tab from: http://www.guitartabs.cc/tabs/s/staind/mudshovel_tab_ver_3.html ]
 this is the pre verse and the pre chours.It looks a little crazy but 
just run the harmonics with some fast picking and you will get the right sound
just go up and down between the 5th and 2nd frets and get the harmonics.
 eb------------------------------------------------------------------------|
 Bb------------------------------------------------------------------------|
 gb------------------------------------------------------------------------|
 db------------------------------------------------------------------------|
 ab---5.5*---/---5*---/---4.5*---/---4*-/---3*---/---2*---/----------------|
 db------------------------------------------------------------------------|

  VERSE             You will hear it
 eb------------------------------------------------------------------------|
 Bb------------------------------------------------------------------------|
 gb------------------------------------------------------------------------|
 db----let ring------------------------------------------------------------|
 ab------5*~~~~~-----------------------------------------------------------|
 db---------------------12*------------------------------------------------|

 Chours
 eb------------------------------------------------------------------------|
 Bb------------------------------------------------------------------------|
 gb-------------------------------12--~~-----------------------------------|
 db----0--0--0--0--0--0-----------10--~~-----------------------------------|
 ab----0--0--0--0--0--0-----------10--~~-----------------------------------|
 db----0--0--0--0--0--0-----------10--~~-----------------------------------|

    {bridge}-{outro}
 eb------------------------------------------------------------------------|
 Bb------------------------------------------------------------------------|
 gb------------------------------------------------------------------------|
 db------3-----0-----6----0--0---1-----------------------------------------|
 ab------3-----0-----6----0--0---1-----------------------------------------|
 db------3-----0-----6----0--0---1-----------------------------------------|
Comments